TabNabber Tablature   Musician Supported
  Piano, Guitar + more Tablature
Espa˝ol English
Franšais Русский
Browse Artist:
# A B C D E F G H I J K L M N O P Q R S T U V W X Y Z
|--------|-------|------|------ PLEASE NOTE ------|--------|----------|---------|
The "Sonu Nigam" tab / transcription shown was created by people over whom TabNabber exercises no control. It is intended for private study, research, and to help educate and expand the talents of musicians everywhere.
|---------|-------|------- TabNabber's terms of use --------|--------|--------|
guitar

Guitar Tab, Chords


Sonu Nigam
Kal ho na ho

Artist: 
Song: 
Rating:  (2.9 from 26 votes)
Views:  33,618
    Last Update:  6 years ago
by:
black_pixie
guest
[Guest]
Print This!

26 Votes
5 star: 35%  (9)
4 star: 12%  (3)
3 star: 8%  (2)
2 star: 4%  (1)
1 star: 42%  (11)
0 star:  (0)
    Rate:   
5 star
4 star
3 star
2 star
1 star
Login to Edit
Edit
Tab
View Sheet Music
View as Sheet Music
YouTube
Watch
Video
Instrument / Track Legend
Instrument Map
Speed:

Play
Intro
Sustain
Notes:
Download midi (intro) ...
 

Comments / Corrections (11):  

harry
[Guest]

(3 years ago)
guitar chords of kal ho na ho
www.linkwe.blogspot.com

Reply

Invisible
[Guest]

(3 years ago)
@Engemnormen - Google it..!

Reply

Engemnormen
[Guest]

(3 years ago)
Sorry for the stupid question. What is the best search engine http://google.com or http://yahoo.com?

Reply

Anonymous
[Guest]

(4 years ago)
E|-----------------------10-8---------------------------------------|
B|-11--10-11--10-11-10-11------10--10---8-10-8-10-------------------|
G|------------------------------------------------------------------|
a# a a# a a# a a#dc a a gaga
Har Ghadi Badal Rahiii Hai Roop Zindagi
Chaav Hai Kahhi kabhii Hai Dhoop Zidnagi

E|-----------6------------------------------------------------------|
B|--6---8-------8-------6---8-6-------------------------------------|
G|------------------8-----------------------------------------------|
f g a# g d# f gf
har pal yahaaN jee bhar jiyo

E|---------6--------------------------------------------------------|
B|--6--8------8---9---8------6--------------------------------------|
G|------------------------8-----------------------------------------|
f g a# g g# g d# f
jo hai samaa kal ho na ho

E|-5-6----8---5--------------------5-6-8--5-------------------------|
B|-------------6--------------6---------------6-----------8---------|
G|------------------8-7-----8---------------------8-7-8-------------|
aa# c af d#d d# f, aa# c a f d#dd# g
chaahe jo tumhein poore dil se, miltaa hai vo mushkil se

E|------11--10--8----------------------11-10-8----------------------|
B|-10-11---------11---10-10-11---10-11----------11-10-10-11-8-6-----|
G|------------------------------------------------------------------|
a a# d# d c a# a a a#, a a# d# d c a# a a a#gf
aisaa jo koi kahin hai, bas vohi sabse hasin haiii

E|--------6------------------------6--------------------------------|
B|-6-8------8-------6-8--6---6--8----8----9--8--------6-------------|
G|---------------8-------------------------------8-----------------|



Reply

angel
[Guest]

(4 years ago)
c bc bc edc gaca fgag






Reply

unknown 4evr
[Guest]

(4 years ago)
it is very hard 2 understand!!!!!!!!!!!!!!!!!!!!!!!!!!!

Reply

Anonymous
[Guest]

(4 years ago)
it is not correct but it sounds good!

Reply

Anonymous
[Guest]

(4 years ago)
dude!>. itss seemzz gud at cbcbc..............

Reply

jj
[Guest]

(5 years ago)
y is it tabs????????/
cant u just givw us the notes

Reply

deb
[Guest]

(5 years ago)
can any one give the piano notes.....

Reply

Anonymous
[Guest]

(6 years ago)
sorry its this:
E|-----------------------10-8---------------------------------------|
B|-11--10-11--10-11-10-11------10--10---8-10-8-10-------------------|
G|------------------------------------------------------------------|
a# a a# a a# a a#dc a a gaga
Har Ghadi Badal Rahiii Hai Roop Zindagi
Chaav Hai Kahhi kabhii Hai Dhoop Zidnagi

E|-----------6------------------------------------------------------|
B|--6---8-------8-------6---8-6-------------------------------------|
G|------------------8-----------------------------------------------|
f g a# g d# f gf
har pal yahaaN jee bhar jiyo

E|---------6--------------------------------------------------------|
B|--6--8------8---9---8------6--------------------------------------|
G|------------------------8-----------------------------------------|
f g a# g g# g d# f
jo hai samaa kal ho na ho

E|-5-6----8---5--------------------5-6-8--5-------------------------|
B|-------------6--------------6---------------6-----------8---------|
G|------------------8-7-----8---------------------8-7-8-------------|
aa# c af d#d d# f, aa# c a f d#dd# g
chaahe jo tumhein poore dil se, miltaa hai vo mushkil se

E|------11--10--8----------------------11-10-8----------------------|
B|-10-11---------11---10-10-11---10-11----------11-10-10-11-8-6-----|
G|------------------------------------------------------------------|
a a# d# d c a# a a a#, a a# d# d c a# a a a#gf
aisaa jo koi kahin hai, bas vohi sabse hasin haiii

E|--------6------------------------6--------------------------------|
B|-6-8------8-------6-8--6---6--8----8----9--8--------6-------------|
G|---------------8-------------------------------8-----------------|

Reply

Comment on this tab   -   Unhelpful comments are exterminated.
  Your Guest Name:
      [Member Login]
  Comments:
 

Don't understand the tab?
See "How to Read Guitar Tabs".
Supported tags:
<i>italics</i>
<b>bold</b>
<u>underline</u>
<tab>tab lines</tab>
  Verify your humanity:

Enter the characters above:





 
      Members:    New?
Alias
Pass
How to Read Tabs
Forum / Requests
keyboard Piano Chords
keyboard Piano Scales
Play Piano Tabs as Midi
Play Guitar Tabs as Midi
Convert Tabs to Sheet Music
Convert Guitar Tabs
Midi to Tab
Transpose Piano Tab
How to Help TabNabber...
Highest Rated
Featured
Additions
Updates
 Search Box 

 
  Piano Chords Poster
Piano Chords



Guitar Chords Poster
Guitar Chords


Most posters
under $9!
(use our discount code to save even more!)

 

[866 TabNabbers online]






Search Posters/Shirts:

22% off entire order using coupon code: TDOC22 (expires soon...)

Musical Instrument Montage
Musical Montage
Buy at AllPosters.com

The Doors
Jim Morrison - The Doors


Piano Sheet Music Poster
Piano Tie Shirt


Bob Marley
Bob Marley



2014 TabNabber.com - Musician Supported     ----|---  Contact us  ---|--- Advertising ---|---  Privacy Policy ---|---  Terms of Use  ---| facebook facebook