TabNabber Tabs   Musician Supported
  Music Tabs
Espa˝ol English
Franšais Русский
Artist: # A B C D E F G H I J K L M N O P Q R S T U V W X Y Z
Discussion Forums Free wisdom and all questions answered or your money back!
  [Advanced]
Forums > Website Related > TabNabber sometimes adds extra line breaks on Guitar Tabs to Piano Tabs
18 days ago new
TabNabber sometimes adds extra line breaks on Guitar Tabs to Piano Tabs 47 views
2 replies
Bryce Herrmann
[Guest]
Almost every time I input a tab,

C|---------------------------------------------0---------|
G|---0---0---0---0---0---0---0---0---0---0---0---0-------|
e|-4---4---4---4---4---4---4---4---4---4---5-------------|
b|-------------------------------------------------------|
F|-------------------------------------------------------|
b|-------------------------------------------------------|

the output (piano tabs) would be

C|---------------------------------------------0---------|
G|---0---0---0---0---0---0---0---0---0---0---0---0-------|
e|-4---4---4---4---4---4---4---4---4---4---5-------------|

b|-------------------------------------------------------|

F|-------------------------------------------------------|
b|-------------------------------------------------------|

and it screws it up. Am I doing something wrong?


8 days ago new
BA


Admin
[Admin]

382 Posts
Thanks for reporting!

It appears the converter doesn't currently support the non standard guitar tab tuning you have there, but I think we should be able to fix that.

In the meantime, our guitar to midi player can handle any tuning of guitar, so if you take your tab there, https://tabnabber.com/play/?instrType=7
turn it into a midi and save it, then you can turn the midi into a piano tab here:
https://tabnabber.com/MidiToTabConverter


8 days ago new
Reality Czech
[Guest]
I approve




Page Loaded in: 0.0781 seconds
 
©2022 TabNabber.com - Musician Supported Contact us Advertising Merchandise Privacy Policy Terms of Use facebook Twitter