TabNabber Tabs   Musician Supported
  Music Tabs
Espa˝ol English
Franšais Русский
electric guitar

Guitar Tab, Chords

Featured! Featured! Featured!

(0 from 0 votes)
1,651 Views, Last Update 7 months ago
by: A aron
guest
[Guest]
e|--------------------------------|--------------------------------|
B|--------------------------------|--------------------------------|
G|----------------9---9-9-9-9-9---|----------------9---9-9-9-9-9--9|
D|----9---9-9-9-9---9-9-9-9-9---9-|----9---9-9-9-9---9-9-9-9-9---9-|x2
A|7-7---7-7-7-7----------------7-7|7-----7-7-7-7----------------7-7|
E|--------------------------------|--------------------------------|
  =-=-=-=-=-=-=-=-=-=-=-=-=-=-=-=-
e|--------------------------------|--------------------------------|
B|--------------------------------|--------------------------------|
G|9---------------9---9-9-9-9-9---|9-------------------9-9-9-9-9---|
D|----9---9-9-9-9---9-9-9-9-9-----|----9-9-9-9-9-9-----9-9-9-9-9---|x2
A|7-7---7-7-7-7----------------7--|7-7---7-7-7-7---------------9---|
E|--------------------------------|----------------------------7---|

e|--------------------------------|--------------------------------|
B|--------------------------------|--------------------------------|
G|----------------9---9-9-9-9-9---|----------------9---9---9---9--9|
D|----9---9-9-9-9---9-9-9-9-9---9-|----9---9---9-------9---9-----9-|
A|7-7---7-7-7-7----------------7-7|7-----7---7---7--------------7-7|
E|--------------------------------|--------------------------------|


Login to Edit
Edit
YouTube
Video
View Sheet Music
Sheet
Music
Print
Download Midi
Speed:
Download Midi Intro (login for the full song)
Get
Intro
Sustain:
alt 1     alt 2

 Rate:
5 star
4 star
3 star
2 star
1 star
 

Comments (0)
 

No comments yet...

Comment on this tab
  Your Guest Name:
      [Member Login]
  Comments:
 

Don't understand the tab?
See "How to Read Guitar Tabs".
Supported tags:
<i>italics</i>
<b>bold</b>
<u>underline</u>
<tab>tab lines</tab>
  Are you a spam robot?

If not, solve the equation:




[108288 TabNabbers online]
©2024 TabNabber.com - Musician Supported Contact us Advertising Merchandise Privacy Policy Terms of Use facebook Twitter