TabNabber Tabs   Musician Supported
  Music Tabs
Espa˝ol English
Franšais Русский
guitar

Guitar Tab, Chords



(0 from 0 votes)
11,990 Views, Last Update 13 years ago
by: Max
guest
[Guest]
E|---------------2--1--2--|-5--2----------------------------------------|-------------------------------------------|
B|------------------------|-------5--2--3--0----------------------0-----|-0--3--2--0----------------0---------------|
G|------------------------|-----------------------------------2------3--|-------------2--2------2-------------------|
D|------------------------|-------------------4--4--2--2--4-------------|-------------------4--------------0--2--0--|
A|------------------------|---------------------------------------------|-------------------------------------------|
E|------------------------|---------------------------------------------|-------------------------------------------|


E|-------------------------0--2--5---7---3--0-----|-0------------------------------------2--1--2--|
B|----------------0--3--0----------------------3--|----3--0-----------0-----3--0--0---------------|
G|-------2-----2----------------------------------|-------------2--2-----2------------------------|
D|-2--4-----4-------------------------------------|----------4------------------------------------|
A|------------------------------------------------|-----------------------------------------------|
E|------------------------------------------------|-----------------------------------------------|


E|-0-----------------------------------------|----------------|----------------|----------------|
B|----3--0-----------0-----3-----0-----------|----------------|----------------|----------------|
G|-------------2--2-----2-----2----------0---|-0------0---0---|-0------0---0---|-0------0---0---|
D|----------4----------------------------4---|-4------4---4---|-4------4---4---|-4------4---4---|
A|-------------------------------------------|----------------|----------------|----------------|
E|-------------------------------------------|----------------|----------------|----------------|


E|-----------2--1--2--|-5--2----------------------------------------|-------------------------------------------|
B|--------------------|-------5--2--3--0----------------------0-----|-0--3--2--0----------------0---------------|
G|-0------------------|-----------------------------------2------3--|-------------2--2------2-------------------|
D|-4------------------|-------------------4--4--2--2--4-------------|-------------------4--------------0--2--0--|
A|--------------------|---------------------------------------------|-------------------------------------------|
E|--------------------|---------------------------------------------|-------------------------------------------|


E|-------------------------0--2--5---7---3--0-----|-0--------------------------------------|
B|----------------0--3--0----------------------3--|----3--0-----------0-----3--0--0--------|
G|-------2-----2----------------------------------|-------------2--2-----2-----------------|
D|-2--4-----4-------------------------------------|----------4-----------------------------|
A|------------------------------------------------|----------------------------------------|
E|------------------------------------------------|----------------------------------------|


E|------2--2--0-----2----5-------|------2--2--0-----2----5-------|------2--2--0-----2----9-------|
B|-------------------------------|-------------------------------|-------------------------------|
G|-------------------------------|-------------------------------|-------------------------------|
D|-------------------------------|-------------------------------|-------------------------------|
A|-------------------------------|-------------------------------|-------------------------------|
E|-------------------------------|-------------------------------|-------------------------------|


E|------2--2--0-----2------------|---------------2--0--2--|-------------------------0--2--5---7---2--0-----|
B|-----------------------2--2----|------------------------|----------------0--3--0----------------------3--|
G|-------------------------------|------------------------|-------2-----2----------------------------------|
D|-------------------------------|------------------------|-2--4-----4-------------------------------------|
A|-------------------------------|------------------------|------------------------------------------------|
E|-------------------------------|------------------------|------------------------------------------------|


E|-0---------------------------------------------|-0--------------------------------------|
B|----3--0-----------0-----3-----0---------------|----3--0-----------0-----3-----0--------|
G|-------------2--2-----------2------------------|-------------2--2-----------2-----------|
D|----------4-----------4---------------0--2--0--|----------4-----------4-----------------|
A|-----------------------------------------------|----------------------------------------|
E|-----------------------------------------------|----------------------------------------|



Login to Edit
Edit
YouTube
Video
View Sheet Music
Sheet
Music
Print
Download Midi
Speed:
Download Midi Intro (login for the full song)
Get
Intro
Sustain:
alt 1     alt 2

 Rate:
5 star
4 star
3 star
2 star
1 star
 

Comments (0)
 

No comments yet...

Comment on this tab
  Your Guest Name:
      [Member Login]
  Comments:
 

Don't understand the tab?
See "How to Read Guitar Tabs".
Supported tags:
<i>italics</i>
<b>bold</b>
<u>underline</u>
<tab>tab lines</tab>
  Are you a spam robot?

If not, solve the equation:




[12030 TabNabbers online]
©2023 TabNabber.com - Musician Supported Contact us Advertising Merchandise Privacy Policy Terms of Use facebook Twitter