TabNabber Tabs   Musician Supported
  Music Tabs
Espa˝ol English
Franšais Русский
guitar

Guitar Tab, Chords



(0 from 0 votes)
10,153 Views, Last Update 6 years ago
by: anonymous
guest
[Guest]
e|
b|-------0---2p0--------0---2p0--------0---2p0------2---2--------|
G|-----5---5-----5----5---5-----5----5---5-----5--4-------4------|
D|---0-------------0-------------5-------------------------/7-7\-|
a|
e|

Difficulty
Tuning
novice D G C F A D
This is one of the few songs from Lulu that I really liked.
I deceded to make a tab for this song because the only one I saw on the internet was pretty badly
made so here you go. Keep in mind that I made this tab by ear so if I've done something wrong you
are free to correct it without eating me alive.


Tuning:Full Step Down (D,A,C,F,A,D)

D---------------------------------------------------------------|
A---------------------------------------------------------------|
F----------------------------------------------------2----------| x5
C-------0---2p0--------0---2p0--------0---2p0------2---2--------|
G-----5---5-----5----5---5-----5----5---5-----5--4-------4------|
D---0-------------0-------------5-------------------------/7-7\-|

Then the Lead Guitar play something like this:

D---------------------------------------------------------------|
A---------------------------------------------------------------|
F---------------------------------------------------2-----------|
C-------2--0-0h2-0-----0--2--0-----0------0--0----2---2---------|
G-----5--------------5--------------------------4-------4-------|
D---0--------------0------------5-----5-------------------/7-7\-|


D--------------------------|
A--------------------------|
F--------------------------|
C--------------------0-----|
G---5-7-7/9-9-9h10-9---5/4-|
D--------------------------|

Then the main clean riff kicks in again, play it x2 and then play this:

D-------------------------------|-------------------|
A-------------------------------|-------------------|
F--9b--8--7v--7--9/11-9--9/12-7-|------2------------|
C--x---x--x---x--x/x--x--x/x--x-|----2---2----------|
G--7b--6--5v--5--7/9--7--7/10-5-|--4-------4--------|
D-------------------------------|------------/7--7\-|
          
D-----------------------|x2
A-----------------------|
F--7--9/11-9--9/12-7--6-|
C--x--x/x--x--x/x--x--x-|
G--5--7/9--7--7/10-5--4-|
D-----------------------|

From now on use the Distortion Guitar

D------------------------------|
A------------------------------|
F------------------------------|
C------------------------------|
G--7b-5-7-5v-5-7b-7v-5h7-5-4-0-|
D------------------------------|


D------------------------------------------|x2
A------------------------------------------|
F---7b-7-6--7--9/11-9-9/12--7--6--5--------|
C---x--x-x--x--x/x--x-x/x---x--x--x--------|
G---5b-5-4--5--7/9--7-7/10--5--4--3--------|
D------------------------------------/7-7\-|


D----0-0-----0---0---0-0-----0---0-----0-0-----0---0----------------------|
A----3-3---3---3-----3-3---3---3-------3-3---3---3------------------------|
F----2-2-2-----------2-2-2-------------2-2-2--------------5-7b-5-7v-------|
C--0---------------0-----------------0---------------0-/7-----------------|
G--0---------------0-----------------0---------------0--------------/7-7\-|
D--0---------------0-----------------0---------------0--------------/7-7\-|


D----0-0-----------------|x2
A----3-3-----------------|
F----2-2-----------------|
C--0------0--5--6--------|
G--0------0--5--4--/7-7\-|
D--0------0--5--4--/7-7\-|


D--------------------------------------|
A--------------------------------------|
F--7b-7-6--7--9--11-12v-12v--7--6--5---|
C--x--x-x--x--x--x--x---x----x--x--x---|
G--5b-5-4--5--7--9--10v-10v--5--4--3---|
D--------------------------------------|

D-------------------------|x2
A-------------------------|
F--7b-7-6--7-9/11-9-9/12--|
C--x--x-x--x-x/x--x-x/x---|
G--5b-5-4--5-7/9--7-7/10--|
D-------------------------|

Now here we go again with the main clean riff

D----------------------------------------------------------|
A----------------------------------------------------------|
F-------------------------------------------2---2---2------|
C------2-0--0h2-0----0--2--0---0---0--0---2---2---2--------|
G----5-------------5--------------------4------------------|
D--0-------------0-----------5---5-------------------/7-7\-|


D---------------------------------------------------------|x2
A---------------------------------------------------------| 
F---------------------------------------------2-----------| 
C------0---2p0-------0---2p0-------2p0------2---2---------|  
G----5---5-----5---5---5-----5---5-----5--4-------4-------| 
D--0-------------0-------------5--------------------/7-7\-|


From now on the song repeats all the same stuff till the end


Login to Edit
Edit
YouTube
Video
View Sheet Music
Sheet
Music
Print
Download Midi
Speed:
Download Midi Intro (login for the full song)
Get
Intro
Sustain:
alt 1     alt 2

 Rate:
5 star
4 star
3 star
2 star
1 star
 

Comments (0)
 

No comments yet...

Comment on this tab
  Your Guest Name:
      [Member Login]
  Comments:
 

Don't understand the tab?
See "How to Read Guitar Tabs".
Supported tags:
<i>italics</i>
<b>bold</b>
<u>underline</u>
<tab>tab lines</tab>
  Are you a spam robot?

If not, solve the equation:




[107269 TabNabbers online]
©2024 TabNabber.com - Musician Supported Contact us Advertising Merchandise Privacy Policy Terms of Use facebook Twitter