TabNabber Tabs   Musician Supported
  Music Tabs
Espa˝ol English
Franšais Русский
guitar

Guitar Tab, Chords

Featured! Featured! Featured!

(4.5 from 2 votes)
6,922 Views, Last Update 3 years ago
by: Michael Jackson
guest
[Guest]
e|----------------------------------------------------------------|
b|----------------------------------------------------------------|
g|----------------------------------------------------------------|
d|----------------------------------------------------------------|
a|----------------------------------------------------------------|
e|5-8-7-5-8-7-5-5---8-7-5-8-7-5-5---8-7-5-8-7-5-5---8-7-5-8-7-5---|

e|----------------------------------------------------------------|
b|----------------------------------------------------------------|
g|----------------------------------------------------------------|
d|----------------------------------------------------------------|
a|5-8-7-5-8-7-5-5---8-7-5-8-7-5-5---8-7-5-8-7-5-5---8-7-5-8-7-5---|
e|----------------------------------------------------------------|

e|----------------------------------------------------------------|
b|----------------------------------------------------------------|
g|----------------------------------------------------------------|
d|5-8-7-5-8-7-5-5-------------------------------------------------|
a|------------------8-7-5-8-7-5-5-------------------8-7-5-8-7-5---|
e|----------------------------------8-7-5-8-7-5-5-----------------|


Login to Edit
Edit
YouTube
Video
View Sheet Music
Sheet
Music
Print
Download Midi
Speed:
Download Midi Intro (login for the full song)
Get
Intro
Sustain:
alt 1     alt 2

2 Votes
5 star: 50%  (1)
4 star: 50%  (1)
3 star:  (0)
2 star:  (0)
1 star:  (0)
0 star:  (0)
 Rate:
5 star
4 star
3 star
2 star
1 star
 

Comments (0)
 

No comments yet...

Comment on this tab
  Your Guest Name:
      [Member Login]
  Comments:
 

Don't understand the tab?
See "How to Read Guitar Tabs".
Supported tags:
<i>italics</i>
<b>bold</b>
<u>underline</u>
<tab>tab lines</tab>
  Are you a spam robot?

If not, solve the equation:




[14272 TabNabbers online]
©2023 TabNabber.com - Musician Supported Contact us Advertising Merchandise Privacy Policy Terms of Use facebook Twitter