TabNabber Tabs   Musician Supported
  Music Tabs
Espa˝ol English
Franšais Русский
guitar

Guitar Tab, Chords

Featured! Featured! Featured!

(3 from 6 votes)
40,656 Views, Last Update 16 years ago
by: Max
guest
[Guest]
Artist Name: Morricone
Song Name  : clan
==========================================================

PART 1:
e------------------------------------------------
B---10---13---12---11---10---13---12---11---10---
G------------------------------------------------
D---7----10---9----8----7----10---9----8----7----
A------------------------------------------------
E------------------------------------------------


PART 2:
e|------------------------------------------------------------------
B|------5---------5---------5---------5---------5---------5---------
G|--5---------5---------4---------4---------3---------3-------------
D|7---7-----7---7-----6---6-----6---6-----5---5-----5---5-----------
A|------------------------------------------------------------------
E|------------------------------------------------------------------

e---------------------------------------------------------------------
B---------5---------5---------3---------3---------3---------3---------
G-----3---------3---------2---------2---------2---------2-------------
D---5---5-----5---5-----4---4-----4---4-----4---4-----4---4-----------
A---------------------------------------------------------------------
E---------------------------------------------------------------------

e---------------------------------------------------------------------
B---------3---------3---------3---------3-----------------------------
G-----1---------1---------1---------1-------------5---------5---------
D---3---3-----3---3-----2---2-----2---2-------7---------7-------------
A-------------------------------------------7---7-----7---7-----------
E---------------------------------------------------------------------

e---------------------------------------------------------------------
B---------------------------------------------------------------------
G---------5---------5---------4---------3---------2-------4-2---------
D-----7---------7---------3---------3---------2---------2-------------
A---6---6-----6---6-----5---5-----5---5-----3---3-----3---------------
E---------------------------------------------------------------------


Login to Edit
Edit
YouTube
Video
View Sheet Music
Sheet
Music
Print
Download Midi
Speed:
Download Midi Intro (login for the full song)
Get
Intro
Sustain:
alt 1     alt 2

6 Votes
5 star: 17%  (1)
4 star: 33%  (2)
3 star: 17%  (1)
2 star:  (0)
1 star: 33%  (2)
0 star:  (0)
 Rate:
5 star
4 star
3 star
2 star
1 star
 

Comments (0)
 

No comments yet...

Comment on this tab
  Your Guest Name:
      [Member Login]
  Comments:
 

Don't understand the tab?
See "How to Read Guitar Tabs".
Supported tags:
<i>italics</i>
<b>bold</b>
<u>underline</u>
<tab>tab lines</tab>
  Are you a spam robot?

If not, solve the equation:




[79020 TabNabbers online]
©2023 TabNabber.com - Musician Supported Contact us Advertising Merchandise Privacy Policy Terms of Use facebook Twitter