TabNabber Tabs   Musician Supported
  Music Tabs
Espa˝ol English
Franšais Русский
guitar

Guitar Tab, Chords



(0 from 0 votes)
1,316 Views, Last Update 1 year ago
by: Anonymous
guest
[Guest]
e||---------------------------------------|
B||-----0---0-----0--------0---0-----3b-0-|
G||---3---3-----3---3----3---3-----3------|
D||---------------------------------------|
A||-----------0---------------------------|
E||-0------------------3---------2--------|
 
e||-------------------------------------------|
B||-----0---0-----0--------0---0-----3br0---0-|
G||---3---3-----3---3----3---3-----3------3---|
D||-------------------------------------------|
A||-----------0-------------------------------|
E||-0------------------3---------2------------|


Login to Edit
Edit
YouTube
Video
View Sheet Music
Sheet
Music
Print
Download Midi
Speed:
Download Midi Intro (login for the full song)
Get
Intro
Sustain:
alt 1     alt 2

 Rate:
5 star
4 star
3 star
2 star
1 star
 

Comments (0)
 

No comments yet...

Comment on this tab
  Your Guest Name:
      [Member Login]
  Comments:
 

Don't understand the tab?
See "How to Read Guitar Tabs".
Supported tags:
<i>italics</i>
<b>bold</b>
<u>underline</u>
<tab>tab lines</tab>
  Are you a spam robot?

If not, solve the equation:




[13175 TabNabbers online]
©2023 TabNabber.com - Musician Supported Contact us Advertising Merchandise Privacy Policy Terms of Use facebook Twitter