TabNabber Tabs   Musician Supported
  Music Tabs
Espa˝ol English
Franšais Русский
guitar

Guitar Tab, Chords



(0 from 0 votes)
433 Views, Last Update 5 months ago
by: BACHVS
guest

Pro Tabber
[Pro Tabber]
Stave 1:

E|-----------------------------------------------------------------------------------------------------------------------------------------------------------------------
B|-----------3--3--------------------2--2--------------------3--3--------------------3--3--------------------3--3--------------------2--2-----------------3--3-----------
G|--------2--------2-----2--------3--------3-----3--------2--------2-----2--------3--------3-----3--------2--------2-----2--------0--------0-----------2--------2--------
D|-----3--------------3--------2--------------2--------3--------------3--------0--------------0--------3--------------3--------2--------------2-----3--------------3-----
A|--------------------------------------------------------------------------------------------------------------------------------------------------------------------0--
D|--0-----------------------2-----------------------3-----------------------5-----------------------3-----------------------2--------------------0-----------------------

Stave 2:

E|--------------1-----------------------3-----------------------5-----------------------6-----------------------5-----------------------3-----------------------0-----------
B|-----------3-----3-----------------2-----2-----------------3-----3-----------------5-----5-----------------3-----3-----------------2-----2-----------------2-----2--------
G|--------2-----------2-----------3-----------3-----------5-----------5-----------7-----------7-----------5-----------5-----------3-----------3-----------0-----------0-----
D|-----3-----------------3-----2-----------------2-----3-----------------3-----5-----------------5-----3-----------------3-----2-----------------2-----2-----------------2--
A|--------------------------------------------------------------------------------------------------------------------------------------------------0-----------------------
D|--0-----------------------2-----------------------3-----------------------5-----------------------3-----------------------2-----------------------------------------------

Stave 3:

E|-------------------------------------------10--10-----------------------9--9----------------------10--10--------------------------12--12-------------------------10--10-----------------------9--9--------------
B|-----------3--3------------------------10----------10------10--------8--------8-----8---------10----------10------10----------11----------11------11---------10----------10------10--------8--------8-----8-----
G|--------2--------2-----------------10------------------10---------9--------------9--------10------------------10----------12------------------12---------10------------------10---------9--------------9--------
D|-----3--------------3-----------0-------------------------------------------------------------------------------------------------------------------------------------------------------------------------------
A|-----------------------0---------------------------------------7-----------------------8------------------------------10------------------------------8------------------------------7--------------------------
D|--0-----------------------0-------------------------------------------------------------------------------------------------------------------------------------------------------------------------------------

Stave 4:

E|-------------10--10--------------------------1-----------------------3-----------------------5-----------------------6-----------------------5-----------------------3-----------------------0--------------
B|---------10----------10------10-----------3-----3-----------------2-----2-----------------3-----3-----------------5-----5-----------------3-----3-----------------2-----2-----------------2-----2-----------
G|-----10------------------10------------2-----------2-----------3-----------3-----------5-----------5-----------7-----------7-----------5-----------5-----------3-----------3-----------0-----------0--------
D|--0---------------------------------3-----------------3-----2-----------------2-----3-----------------3-----5-----------------5-----3-----------------3-----2-----------------2-----2-----------------2-----
A|---------------------------------------------------------------------------------------------------------------------------------------------------------------------------------0--------------------------
D|---------------------------------0-----------------------2-----------------------3-----------------------5-----------------------3-----------------------2--------------------------------------------------

Stave 5:

E|--------------1--------------------1--1--------------------3--3-----------------------0-----------------------------------------------0--0--------------------0--0-----------
B|-----------3-----3--------------3--------3-----3--------3--------3-----3-----------2-----2-----2-----------3--3--------------------3--------3-----3--------3--------3-----3--
G|--------2-----------2--------3--------------3--------3--------------3-----------0-----------0-----------2--------2-----2--------3--------------3--------3--------------3-----
D|-----3-----------------3-----------------------------------------------------2-----------------------3--------------3--------------------------------------------------------
A|--------------------------1--------------------------------------------------------------------------------------------------1-----------------------------------------------
D|--0-----------------------------------------------5-----------------------2-----------------------0--------------------------------------------------5-----------------------

Stave 6:

E|-----------0--0--------------------------------------------------6--6-----------------5--5-----------------9--9-------------------10--10--------------6--6-----------------5--5-----
B|--------2--------2-----2-----------3--3-----------------------5--------------------3--------------------8---------------------10-------------------5--------------------3-----------
G|-----2--------------2-----------2--------2-----------------7--------------------5--------------------9--------------------10--------------------7--------------------5--------------
D|-----------------------------3--------------3-----------------------------------------------------------------------0---------------------------------------------------------------
A|--0--------------------------------------------0------------------------------------------------------------------------------------------------------------------------------------
D|--------------------------0-----------------------0--5--------------------3--------------------7------------------------------------------5--------------------3--------------------

Stave 7:

E|--------------------------------------------------10--------------------------
B|--------------2--2-----------------3--3-----------10--------------3-----------
G|-----------0--------------------2-----------------10--------------2-----------
D|--------2--------------------3--------------0---------------------3-----------
A|--0---------------------------------------------------------------------------
D|-----------------------0------------------------------------0-----------------


Login to Edit
Edit
YouTube
Video
View Sheet Music
Sheet
Music
Print
Download Midi
Speed:
Download Midi Intro (login for the full song)
Get
Intro
Sustain:
alt 1     alt 2

 Rate:
5 star
4 star
3 star
2 star
1 star
 

Comments (0)
 

No comments yet...

Comment on this tab   -   Unhelpful comments are exterminated.
  Your Guest Name:
      [Member Login]
  Comments:
 

Don't understand the tab?
See "How to Read Guitar Tabs".
Supported tags:
<i>italics</i>
<b>bold</b>
<u>underline</u>
<tab>tab lines</tab>
  Are you a spam robot?

If not, solve the equation:




[15740 TabNabbers online]


©2022 TabNabber.com - Musician Supported Contact us Advertising Merchandise Privacy Policy Terms of Use facebook Twitter