TabNabber Tabs   Musician Supported
  Music Tabs
Espa˝ol English
Franšais Русский
guitar

Guitar Tab, Chords



(0 from 0 votes)
701 Views, Last Update 5 months ago
by: slickrick


Tabologist
[Tabologist]
e|---------------------------------------------------------------------------|
B|-2--4--6--4----4----2----2----6----6----4----4----7----7----6-----6--------|
G|-----------3----3----3----3----5----5----5----5----6----6----6-----6-------|
D|------------4----4----4----4----6----6----6----6----8----8----8-----8------|
A|---------------------------------------------------------------------------|
E|---------------------------------------------------------------------------| 
 
e|---------------------------------------------------------------------------|
B|-4----4----2----2----1----1----2----2----4----4----------------------------|
G|--3----3----3----3----1----1----1----1----1----1---------------------------|
D|---4----4----4----4----1----1----1----1----1----1--------------------------|
A|---------------------------------------------------------------------------|
E|---------------------------------------------------------------------------|
 
e|---------------------------------------------------------------------------|
B|-9---9---9---9----9----7----7----6----6------------------------------------|
G|---8---8---8--8----8----8----8----5----5-----------------------------------|
D|---------------10---10---10---10---6----6----------------------------------|
A|---------------------------------------------------------------------------|
E|---------------------------------------------------------------------------|


Login to Edit
Edit
YouTube
Video
View Sheet Music
Sheet
Music
Print
Download Midi
Speed:
Download Midi Intro (login for the full song)
Get
Intro
Sustain:
alt 1     alt 2

 Rate:
5 star
4 star
3 star
2 star
1 star
 

Comments (0)
 

No comments yet...

Comment on this tab   -   Unhelpful comments are exterminated.
  Your Guest Name:
      [Member Login]
  Comments:
 

Don't understand the tab?
See "How to Read Guitar Tabs".
Supported tags:
<i>italics</i>
<b>bold</b>
<u>underline</u>
<tab>tab lines</tab>
  Are you a spam robot?

If not, solve the equation:




[12713 TabNabbers online]


©2022 TabNabber.com - Musician Supported Contact us Advertising Merchandise Privacy Policy Terms of Use facebook Twitter