TabNabber Tabs   Musician Supported
  Music Tabs
Espa˝ol English
Franšais Русский
guitar

Guitar Tab, Chords



(0 from 0 votes)
2,015 Views, Last Update 1 year ago
by: BACHVS
guest

Pro Tabber
[Pro Tabber]
(/) Slide Up  (\) Slide Down  (h) Hammer On  (p) Pull Off  (b) Bend (r) Release (v) Vibrato

Stave 1:

E|-----10--9--10------8--7--------------7--|-----5-----5--------0--------------------|-----2--0--2--------------2--------------|-----0-----0-----------------5-----2-----|-----------------------------2--0--------|--
B|----------------10--------7--8-----8-----|--------8--------7-----8--------5--8-----|-----------------2--0--3-----------------|--------3--------0-----2--5-----5--------|--3--------------------0--3--------3-----|--
G|--------------------------------7--------|--------------7-----------4--6-----------|--------------2--------------2--1--------|--1-----------1-----2--------------------|-----4--2--4-----2--1--------------------|--
D|-----------------------------------------|-----------------------------------------|-----------------------------------4-----|-----------------------------------------|--------------4--------------------------|--
A|-----------------------------------------|-----------------------------------------|-----------------------------------------|--0-----------------4--------------------|--2--------------------------------------|--
D|--0--------------------------------------|--0--------------------------------------|--0--------------------------------------|-----------------------------------------|--------------------2--------------------|--

Stave 2:

E|-----5--4--5--0--3--2--------------2-----|-----0-----0-----------------------------|-----------------------------------------|--------------------0--------------------|-----------3--2--5-----2--------------|--
B|--2--------------------2--3-----3--------|--------3--------2--0--3-----------3-----|-----2--0--2--------------1--------------|-----------1--0--4-----0-----------------|--------5-----------4-----------------|--
G|-----------------------------2-----------|--------------2--------------1--4--------|-----------------0-----2-----0-----------|--------2-----------------0--------------|--2--5--------------------2--5--4--2--|--
D|-----------------------------------------|--------------------------4--------------|--------------2-----4-----------4--2-----|--1--4-----------------------2--4--5-----|--------------------------------------|--
A|--0--------------------------------------|--0--------------------------------------|--0--------------------------------------|--0--------------------------------------|--------------------2-----------------|--
D|--5--------------------------------------|-----------------------------------------|-----------------------------------------|--------------------5--------------------|--4-----------------------------------|--

Stave 3:

E|-----0-----0-----------------0--2--3--|--2-----------------------------0--2-----|--0-----------------------------------|--
B|--------4--------3--2-----2-----------|-----3--2--3--------0-----0--3-----------|-----2--0--2-----0-----------2--3--5--|--
G|--0-----------0--------2--------------|--------------3--6-----0-----------------|--------------1-----3-----3-----------|--
D|--------------------------------------|-----------------------------------------|-----------------------4--------------|--
A|--------------------0--------4--------|-----------------------------2-----------|--4--------------------------1--------|--
D|--2--------5--------------------------|--0--------4--------5--------------------|-----------2--------4-----------------|--

Stave 4:

E|-----7--6--7-----5--3-----0-----0--3--|-----2--0--2-----------0-----------0-----|--------------------------------------|-----------------------------2--------|--------------------------------------|--
B|--3-----------7--------4-----0--------|--------------0--3--2-----0-----2--------|-----3--2--3--------------3-----------|-----2--0--2--------------2-----2--3--|--0-----------0-----------0--3--2--0--|--
G|--------------------------------------|-----------------------------3-----------|-----------------2-----4-----2--------|-----------------1-----2--------------|-----------------1-----1--------------|--
D|--------------------------------------|-----------------------------------------|--------------4-----5-----------5--4--|--3-----------3-----4-----------------|-----4--3--4--------3-----------------|--
A|--2-----------------------------------|--2--------------------------------------|--2-----------------------------------|--2-----------------0-----------------|--------------------4-----------------|--
D|--------------------------------------|-----------------------------------------|--------------------------------------|--------------------------------------|--6-----------------------------------|--

Stave 5:

E|--------------2-----2--5--2-----------|-----------2--5--3--5--8--7--5--------|--3-----------0-----0--3--------------|--------------3--2--3--7--5-----------|--2--------------------------------2--|--
B|-----------2-----6-----------2--4--5--|--4-----4-----------------------8--7--|-----------0-----4--------0--3--2--0--|--2-----2--5-----------------8--7--5--|-----3--2--3-----------------3--5-----|--
G|--2-----2-----------------------------|-----4--------------------------------|--------0-----------------------------|-----2--------------------------------|--------------2-----------2-----------|--
D|-----4--------------------------------|--------------------------------------|-----2--------------------------------|--------------------------------------|-----------------4-----4--------------|--
A|--------------------0-----------------|--2-----------------6-----------------|--------------------------------------|--0-----------------4-----------------|--------------------3-----------------|--
D|--4-----------------------------------|--------------------------------------|--2-----------------5-----------------|--------------------------------------|--0-----------------------------------|--

Stave 6:

E|--3-----------3--7--8--------------5--|--7-----------------0--------------0--|--------------------------------------|--------------------------------------|--------------------------------------|--
B|-----3--2--3--------------------7-----|-----8--7--8-----6-----0--1-----1-----|-----3-----3-----0-----1-----------1--|-----0-----0--------------------0--3--|--------------0-----------------------|--
G|-----------------------7--6--7--------|--------------7--------------0--------|--------5-----0-----2-----0-----2-----|--------2-----0-----0-----------------|--6--------------6--7-----------6--7--|--
D|--------------------------------------|--------------------------------------|-----------------------------4--------|-----------------4-----2--1--2--------|-----7--6--7-----------7--6--7--------|--
A|--2-----------------0-----------------|--------------------------------------|--------------------------------------|--------------------------------------|--------------------------------------|--
D|--------------------------------------|--5-----------------------------------|--5-----------------------------------|--5-----------------------------------|--5-----------------4-----------------|--

Stave 7:

E|-----------------------7--5-----------|--2-----------2--------2-----------2--|--0-----------0--------0-----------0--|--------------------------------------|-----------------0--5--------------0--|--
B|--5--------------5--8--------8--7--5--|-----3--2--3--------------------3-----|-----2--0--2-----0--------------2-----|--3-----------3--------3--------0--3--|--2-----------2-----------------2-----|--
G|--------------6-----------------------|-----------------5--4-----2--0--------|--------------------2-----0-----------|-----4--2--4-----2--0-----------------|-----0-----0-----------0-----0--------|--
D|-----7--6--7--------------------------|--------------------------------------|-----------------------------4--------|--------------------------4--2--------|--------4-----------------4-----------|--
A|--4-----------------0-----------------|-----------------------------2--------|--4--------------------------0--------|--2-----------------------------------|--0-----------------------------------|--
D|--------------------------------------|--0--------4--------5-----------------|-----------2--------4-----------------|-----------0--------2--------5--------|--------------------------------------|--

Stave 8:

E|--5-----------------5-----------------|--5-----------------3-----------------|--2-----2--2-----2--------2--2-----2--|--------3--3-----3--------5--5-----5--|--6-----------------------------------|--
B|-----------------3-----------------3--|-----------------2-----------------2--|--------3--3-----3--------3--3-----3--|--------3--3-----3--------------------|-----8--7--8--------------------------|--
G|--------------2-----------------2-----|--------------2-----------------2-----|-----2--------2--------2--------2-----|-----0--------0-----------5--5-----5--|--7-----------7--5--7-----------0-----|--
D|-----4--2--4-----------4--2--4--------|-----2--0--2-----------2--0--2--------|--0-----------------------------------|-----------------------4--------4-----|-----------------------8--7--8-----4--|--
A|--2-----------------------------------|--4-----------------------------------|--------------------3-----------------|--1-----------------0-----------------|--------------------------------------|--
D|--------------------------------------|--------------------------------------|--------------------------------------|--------------------------------------|--5-----------------------------------|--

Stave 9:

E|-----------------------------------3--|--5--4--2--5--4--2--0--5-----------0--3--|--2--0-----0--------------------------|-----10--9--10------8--7--------------7--|-----5-----5--------0--------------3--|--
B|--------------------4-----------4-----|--5-----------------------5--------------|--------3-----0--3--------------3--2--|--3-------------10--------7--8-----8-----|--------8--------7-----8--------5-----|--
G|--0-----------0--3-----3--2--3--------|--4--------------------------6--2--------|--------------------------------------|--------------------------------7--------|--------------7-----------4--6--------|--
D|-----1--0--1--------------------------|--0--------------------------------------|--------------------2--5--4--5--------|-----------------------------------------|--------------------------------------|--
A|--------------------------------------|-----------------------4-----------------|--------------------0--------0--------|-----------------------------------------|--------------------------------------|--
D|--5-----------------------------------|-----------------------------------------|--0--------5--------------------------|--0--------------------------------------|--0-----------------------------------|--

Stave 10:

E|-----2--0--2--------------3-----------|--------2-----------------0-----------|-----------2--5--8--7-----0-----0--3--|--2-----------------------------------|-----------|--
B|-----------------1--0--3-----0--------|-----3-----------------2--------------|--------3--------------8-----2--------|--3--3--------------0-----------------|-----------|--
G|--------------2-----------------2--0--|--2--------2--0-----0--------0--------|-----2--------------------------------|--2-----2-----2--5-----0-----------0--|--0--------|--
D|--------------------------------------|-----------------4--------------4--2--|--4--------------0--0--------2--------|--0--------4--------------------------|--0-----4--|--
A|--------------------------------------|--------------------------------------|-----------------------------0--------|--------------------------7--4--7-----|--0--------|--
D|--0-----------------0-----------------|--0-----------------0-----------------|--0--------------4--5-----------------|--0--------------4--5--------7--------|--0--------|--

                                   http://www.guitartabcreator.com


Login to Edit
Edit
YouTube
Video
View Sheet Music
Sheet
Music
Print
Download Midi
Speed:
Download Midi Intro (login for the full song)
Get
Intro
Sustain:
alt 1     alt 2

 Rate:
5 star
4 star
3 star
2 star
1 star
 

Comments (0)
 

No comments yet...

Comment on this tab
  Your Guest Name:
      [Member Login]
  Comments:
 

Don't understand the tab?
See "How to Read Guitar Tabs".
Supported tags:
<i>italics</i>
<b>bold</b>
<u>underline</u>
<tab>tab lines</tab>
  Are you a spam robot?

If not, solve the equation:




[12424 TabNabbers online]
©2023 TabNabber.com - Musician Supported Contact us Advertising Merchandise Privacy Policy Terms of Use facebook Twitter