TabNabber Tabs   Musician Supported
  Music Tabs
Espa˝ol English
Franšais Русский
Artist: # A B C D E F G H I J K L M N O P Q R S T U V W X Y Z
guitar

Guitar Tab, Chords

Featured! Featured! Featured!

(0 from 0 votes)
14,483 Views, Last Update 6 years ago
by: Da Tickler


Tabologist
[Tabologist]
Untitled #43 - Da Tickler
Written, Tabbed & Chorded By: Da Tickler

4/4 TIME @ 96 BPM Acoustic Guitar

*NOTE: The 'Bs4' (Bsus4) doesn't sound quite right on the MIDI, but it
       sounds good on the guitar as there is a slight difference
       between the sounds of the 'B' notes on the 'G' & 'B' strings.

INTRO:
------

 As2

e|------0---------|------0---------|------0---------|------0---------|
B|0-------0---0---|0-------0---0---|0-------0---0---|0-------0---0---|
G|--2-------2---2-|--2-------2---2-|--2-------2---2-|--2-------2---2-|
D|----2-2---------|----2-2---------|----2-2---------|----2-2---------|
A|0---------------|0---------------|0---------------|0---------------|
E|----------------|----------------|----------------|----------------|

 Bs4                               As2

e|------0---------|------0---------|------0---------|------0---------|
B|0-------0---0---|0-------0---0---|0-------0---0---|0-------0---0---|
G|--4-------4---4-|--4-------4---4-|--2-------2---2-|--2-------2---2-|
D|----4-4---------|----4-4---------|----2-2---------|----2-2---------|
A|2---------------|2---------------|0---------------|0---------------|
E|----------------|----------------|----------------|----------------|

 Bs4                               As2

e|------0---------|------0---------|------0---------|------0---------|
B|0-------0---0---|0-------0---0---|0-------0---0---|0-------0---0---|
G|--4-------4---4-|--4-------4---4-|--2-------2---2-|--2-------2---2-|
D|----4-4---------|----4-4---------|----2-2---------|----2-2---------|
A|2---------------|2---------------|0---------------|0---------------|
E|----------------|----------------|----------------|----------------|

 D6s2             C#m7             Bs4

e|------0---------|------0---------|------0---------|------0---------|
B|0-------0---0---|0-------0---0---|0-------0---0---|0-------0---0---|
G|--7-------7---7-|--6-------6---6-|--4-------4---4-|--4-------4---4-|
D|----7-7---------|----6-6---------|----4-4---------|----4-4---------|
A|5---------------|4---------------|2---------------|2---------------|
E|----------------|----------------|----------------|----------------|

 D6s2             C#m7             Bs4

e|------0---------|------0---------|------0---------|------0---------|
B|0-------0---0---|0-------0---0---|0-------0---0---|0-------0---0---|
G|--7-------7---7-|--6-------6---6-|--4-------4---4-|--4-------4---4-|
D|----7-7---------|----6-6---------|----4-4---------|----4-4---------|
A|5---------------|4---------------|2---------------|2---------------|
E|----------------|----------------|----------------|----------------|

 As2                               RETARD > >  >   >    >     >      >

e|------0---------|------0---------|---------0-------------------------|
B|0-------0---0---|0-------0---0---|0-------------0------------0-------|
G|--2-------2---2-|--2-------2---2-|--2-----------------2--------------|
D|----2-2---------|----2-2---------|-----2---2-------------------------|
A|0---------------|0---------------|0----------------------------------|
E|----------------|----------------|-----------------------------------|

 As2

e|-------------0>>|>>>>>>>>>>>>>>>>|>>>>>>>>>>>>>>>>|>>>>>>>0--0--0--|
B|------------0>>>|>>>>>>>>>>>>>>>>|>>>>>>>>>>>>>>>>|>>>>>>>0--0--0--|
G|2----------2>>>>|>>>>>>>>>>>>>>>>|>>>>>>>>>>>>>>>>|>>>>>>>2--2--0--|
D|----------2>>>>>|>>>>>>>>>>>>>>>>|>>>>>>>>>>>>>>>>|>>>>>>>2--2--0--|
A|---------0>>>>>>|>>>>>>>>>>>>>>>>|>>>>>>>>>>>>>>>>|>>>>>>>0--0--0--|
E|----------------|----------------|----------------|----------------|

VERSE:
------

  E                                 A

e|0-------0-------|0---0-0---------|0-------0-------|0---0-0---------|
B|0-------0-------|0---0-0---------|2-------2-------|2---2-2---------|
G|1-------1-------|1---1-1---------|2-------2-------|2---2-2-------0-|
D|2-------2-------|2---2-2-------0-|2-------2-------|2---2-2---0-2---|
A|2-------2-------|2---2-2---0-2---|0-------0-------|0---0-0---------|
E|0-------0-------|0---0-0---------|----------------|----------------|

  E                                 D           A

e|0-------0-------|0---0-0---------|2---2-------0---|------0---------|
B|0-------0-------|0---0-0---------|3---3-------2---|------2---------|
G|1-------1-------|1---1-1---------|2---2-------2---|------2-------0-|
D|2-------2-------|2---2-2-------0-|0---0-------2---|------2---0-2---|
A|2-------2-------|2---2-2---0-2---|------------0---|------0---------|
E|0-------0-------|0---0-0---------|----------------|----------------|


… More 2 Come …


Login to Edit
Edit
YouTube
Video
View Sheet Music
Sheet
Music
Print
Speed:
Play Intro (login for the full song)
Play
Intro
Sustain:
Download midi (intro) ...

 Rate:

Login to Rate this!
 

Comments (0)
 

No comments yet...

Comment on this tab   -   Unhelpful comments are exterminated.
  Your Guest Name:
      [Member Login]
  Comments:
 

Don't understand the tab?
See "How to Read Guitar Tabs".
Supported tags:
<i>italics</i>
<b>bold</b>
<u>underline</u>
<tab>tab lines</tab>
  Are you a spam robot?

If not, solve the equation:




[1757 TabNabbers online]
©2021 TabNabber.com - Musician Supported Contact us Advertising Merchandise Privacy Policy Terms of Use facebook Twitter