TabNabber Tabs   Musician Supported
  Music Tabs
Espa˝ol English
Franšais Русский
Artist: # A B C D E F G H I J K L M N O P Q R S T U V W X Y Z
guitar

Guitar Tab, Chords

Featured! Featured! Featured!

(5 from 5 votes)
18,320 Views, Last Update 7 years ago
by: marvik
guest
[Guest]
e|2-----------2-----------2---0--|
b|0-0---0---0---0---0---0---0----|
g|2---2---------------2-------2--|
d|4-------4-------4--------------|
a|-------------------------------|
e|-------------------------------|

e|0-----------0-----------0---5--|
b|0-2---2---2---2---2---2---2----|
g|2---2---------------2----------|
d|4-------4-------4--------------|
a|-------------------------------|
e|-------------------------------|

e|0-------5---0---0---5---5---0--|
b|3-7---7---7---7---7-5-7-5-7-5--|
g|2---7---------------7---7---7--|
d|0------------------------------|
a|-------------------------------|
e|-------------------------------|

e|0-------0-------------------0--|
b|3-7---7---7---7---7-3-7-3-7-3--|
g|2-----------2-------2---2---7--|
d|0---0-----------0---0---0------|
a|-------------------------------|
e|-------------------------------|


e|2-------2-------2-------2---0--|
b|0-0---0-0-0---0-0-0---0-0-0-0--|
g|2---2---2---2---2---2---2---2--|
d|4-------4-------4---4---4---4--|
a|-------------------------------|
e|-------------------------------|

e|0-------0-------0-------0---5--|
b|0-2---2-0-2---2-0-2---2-0-2----|
g|2---2---2---2---2---2---2------|
d|4-------4-------4-------4------|
a|-------------------------------|
e|-------------------------------|

e|0---5---5---0---0---5---5---0--|
b|3-7-3-7---7-5-7---7-5-7-5-7-5--|
g|2---7-------7-------7---7---7--|
d|0------------------------------|
a|-------------------------------|
e|-------------------------------|

e|0-------0-------0--------------|
b|3-7-3-7-3-7-3-7-3-7-3-7-3-7----|
g|2---2---2---2---2---2---2---2--|
d|0---0---0---0---0---0---0---0--|
a|----------------------------5--|
e|----------------------------0--|


Login to Edit
Edit
YouTube
Video
View Sheet Music
Sheet
Music
Print
Speed:
Play Intro (login for the full song)
Play
Intro
Sustain:
Download midi (intro) ...

5 Votes
5 star: 100%  (5)
4 star:  (0)
3 star:  (0)
2 star:  (0)
1 star:  (0)
0 star:  (0)
 Rate:
5 star
4 star
3 star
2 star
1 star
 

Comments (1)
 

TheStig

Tabologist
[Tabologist]

7 years ago
This is great!

Reply

Comment on this tab   -   Unhelpful comments are exterminated.
  Your Guest Name:
      [Member Login]
  Comments:
 

Don't understand the tab?
See "How to Read Guitar Tabs".
Supported tags:
<i>italics</i>
<b>bold</b>
<u>underline</u>
<tab>tab lines</tab>
  Are you a spam robot?

If not, solve the equation:




[476 TabNabbers online]
©2020 TabNabber.com - Musician Supported Contact us Advertising Merchandise Privacy Policy Terms of Use facebook Twitter