TabNabber Tabs   Musician Supported
  Music Tabs
Espa˝ol English
Franšais Русский
Artist: # A B C D E F G H I J K L M N O P Q R S T U V W X Y Z
electric guitar

Guitar Tab, Chords



(0 from 0 votes)
7,051 Views, Last Update 10 years ago
by: grey47
guest

Tabber
[Tabber]
e|---------------------------------------------------------|
B|---------------------------------------------------------|
G|---------------------------------------------------------|
D|---------------------------------------------------------|
A|--6-6-6-6-5-----------------------6-6-6-6-6-6-5----------|
E|--------------3-3-3-3-3-3-3-----3------------------------|

e|----------------------------------------------------------------------------|
B|----------------------------------------------------------------------------|
G|----------------------------------------------------------------------------|
D|----------------5----------------5-----------------5-----5-5-5-5-5-5-5------|
A|--6-6-6-6-6-5-6-----5-5-5-5-5-5-5-----6-6-6-6-6-5-6-------------------------|
E|----------------------------------------------------------------------------|

e|----------------------------------------------------------------------------|
B|----------------------------------------------------------------------------|
G|----------------------------------------------------------------------------|
D|----------------5----------------5-----------------5-----5-5-5-5-5-5-5------|
A|--6-6-6-6-6-5-6-----5-5-5-5-5-5-5-----6-6-6-6-6-5-6-------------------------|
E|----------------------------------------------------------------------------|

e|----------------------------------------------------------------------------|
B|----------------------------------------------------------------------------|
G|----------------------------------------------------------------------------|
D|----------------5----------------5-----------------5-----5-5-5-5-5-5-5------|
A|--6-6-6-6-6-5-6-----5-5-5-5-5-5-5-----6-6-6-6-6-5-6-------------------------|
E|----------------------------------------------------------------------------|

e|----------------------------------------------------------------------------|
B|----------------------------------------------------------------------------|
G|----------------------------------------------------------------------------|
D|----------------5----------------5-----------------5-----5-5-5-5-5-5-5------|
A|--6-6-6-6-6-5-6-----5-5-5-5-5-5-5-----6-6-6-6-6-5-6-------------------------|
E|----------------------------------------------------------------------------|

e|----------------------------------------------------------------------------|
B|----------------------------------------------------------------------------|
G|----------------------------------------------------------------------------|
D|----------------5----------------5-----------------5-----5-5-5-5-5-5-5------|
A|--6-6-6-6-6-5-6-----5-5-5-5-5-5-5-----6-6-6-6-6-5-6-------------------------|
E|----------------------------------------------------------------------------|

e|----------------------------------------------------------------------------|
B|----------------------------------------------------------------------------|
G|----------------------------------------------------------------------------|
D|----------------5----------------5-----------------5-----5-5-5-5-5-5-5------|
A|--6-6-6-6-6-5-6-----5-5-5-5-5-5-5-----6-6-6-6-6-5-6-------------------------|
E|----------------------------------------------------------------------------|

e|-----------------------------------------------|
B|-----------------------------------------------|
G|-----------------------------------------------|
D|-----------------------------------------------|
A|---6---6-6---6-5---5-5---5-3---3-3---3-1-------|
E|-----------------------------------------------|

e|-----------------------------------------------|
B|-----------------------------------------------|
G|-----------------------------------------------|
D|-----------------------------------------------|
A|---6---6-6---6-5---5-5---5-3---3-3-5-3-1-------|
E|-----------------------------------------------|

e|----------|
B|----------|
G|----------|
D|------5---|
A|--6-5-----|
E|----------|

e|----------------------------------------------------------------------------|
B|----------------------------------------------------------------------------|
G|----------------------------------------------------------------------------|
D|----------------5----------------5-----------------5-----5-5-5-5-5-5-5------|
A|--6-6-6-6-6-5-6-----5-5-5-5-5-5-5-----6-6-6-6-6-5-6-------------------------|
E|----------------------------------------------------------------------------|

e|-------------------|
B|-------------------|
G|-------------------|
D|--5-5-5-5-5-5-5-5--|
A|-------------------|
E|-------------------|

e|----------------------------------------------------------------------------|
B|----------------------------------------------------------------------------|
G|----------------------------------------------------------------------------|
D|----------------5----------------5-----------------5-----5-5-5-5-5-5-5------|
A|--6-6-6-6-6-5-6-----5-5-5-5-5-5-5-----6-6-6-6-6-5-6-------------------------|
E|----------------------------------------------------------------------------|

e|----------------------------------------------------------------------------|
B|----------------------------------------------------------------------------|
G|----------------------------------------------------------------------------|
D|----------------5----------------5-----------------5-----5-5-5-5-5-5-5------|
A|--6-6-6-6-6-5-6-----5-5-5-5-5-5-5-----6-6-6-6-6-5-6-------------------------|
E|----------------------------------------------------------------------------|

e|---------------------|
B|---------------------|
G|---------------------|
D|---8--7--8--8--------|
A|---6--5--6--6--------|
E|---------------------|

e|---------------------|
B|---------------------|
G|---------------------|
D|---8--7--8--8--------|
A|---6--5--6--6--------|
E|---------------------|

e|---------------------|
B|---------------------|
G|---------------------|
D|---8--7--8--8--------|
A|---6--5--6--6--------|
E|---------------------|

e|---------------------|
B|---------------------|
G|---------------------|
D|---8--7--8--8--------|
A|---6--5--6--6--------|
E|---------------------|

e|---------------------|
B|---------------------|
G|---------------------|
D|---8--7--8--8--------|
A|---6--5--6--6--------|
E|---------------------|

e|---------------------|
B|---------------------|
G|---------------------|
D|---8--7--8--8--------|
A|---6--5--6--6--------|
E|---------------------|

e|---------------------|
B|---------------------|
G|---------------------|
D|---8--7--8--8--------|
A|---6--5--6--6--------|
E|---------------------|

e|---------------------|
B|---------------------|
G|---------------------|
D|---8--7--8--8--------|
A|---6--5--6--6--------|
E|---------------------|

E --------------------------------------------------------------------|
B --------------------------------------------------------------------|
G --------------------------------------------------------------------|
D --------------------------------------------------------------------|
A --------------------------------------------------------------------|
E --3-3-3----2-2-2----5-5-5----6-6-6----3-3-3-3---5---3--2-2-2-2-2-2--|

E --------------------------------------------------------------------|
B --------------------------------------------------------------------|
G --------------------------------------------------------------------|
D --------------------------------------------------------------------|
A --------------------------------------------------------------------|
E --3-3-3----2-2-2----5-5-5----6-6-6----3-3-3-3---5---3--2-2-2-2-2-2--|

E --------------------------------------------------------------------|
B --------------------------------------------------------------------|
G --------------------------------------------------------------------|
D --------------------------------------------------------------------|
A --------------------------------------------------------------------|
E --3-3-3----2-2-2----5-5-5----6-6-6----3-3-3-3---5---3--2-2-2-2-2-2--|

E --------------------------------------------------------------------|
B --------------------------------------------------------------------|
G --------------------------------------------------------------------|
D --------------------------------------------------------------------|
A --------------------------------------------------------------------|
E --3-3-3----2-2-2----5-5-5----6-6-6----3-3-3-3---5---3--2-2-2-2-2-2--|

e|---------------------------------|
B|---------------------------------|
G|---------------------------------|
D|---------------------------------|
A|--6------5-------3-------1-------|
E|---------------------------------|

e|---------------------------------|
B|---------------------------------|
G|---------------------------------|
D|---------------------------------|
A|--6------5-------3-------1-------|
E|---------------------------------|

e|----------------------------------------------------------|
B|----------------------------------------------------------|
G|----------------------------------------------------------|
D|----------------------------------------------------------|
A|-6-6-6-6-6-6-6-5-5-5-5-5-5-5-3-3-3-3-3-3-3-3-1-1-1-1-1-1-1|
E|----------------------------------------------------------|





Login to Edit
Edit
YouTube
Video
View Sheet Music
Sheet
Music
Print
Speed:
Play Intro (login for the full song)
Play
Intro
Sustain:
Download midi (intro) ...

 Rate:
5 star
4 star
3 star
2 star
1 star
 

Comments (0)
 

No comments yet...

Comment on this tab   -   Unhelpful comments are exterminated.
  Your Guest Name:
      [Member Login]
  Comments:
 

Don't understand the tab?
See "How to Read Guitar Tabs".
Supported tags:
<i>italics</i>
<b>bold</b>
<u>underline</u>
<tab>tab lines</tab>
  Are you a spam robot?

If not, solve the equation:




[723 TabNabbers online]
©2020 TabNabber.com - Musician Supported Contact us Advertising Merchandise Privacy Policy Terms of Use facebook Twitter