TabNabber Tabs   Musician Supported
  Music Tabs
Espa˝ol English
Franšais Русский
Artist: # A B C D E F G H I J K L M N O P Q R S T U V W X Y Z
guitar

Guitar Tab, Chords



(0 from 0 votes)
10,869 Views, Last Update 10 years ago
by: xRevolution09x


Tabber
[Tabber]
Guitar 1(C#-G#-C#-F#-A#-D#)

....=palm mute
<>=natural harmonic
s=slide
(ghost note)
~=let ring
C=Chorus


Intro/Guitar
Note: The Midi isn't going to sound good because the guitar is in an alternate 
tuning.
e|-------------------------------------------|
B|-12-0-10-0-8s10-0-12s15-0-15s17-0----------|
G|----------------------------------12-11-9--|
D|-------------------------------------------|
A|-------------------------------------------|
E|-------------------------------------------|

(0:07)Guitar 2                          1st ending   2nd ending             
e|---------------------------------------|---------|---------|
B|---------------------------------------|-------X2|---------|
G|---------------------------------------|-7-7-7-7-|---------|
D|-2-2-<2-2>--2-2--<2-2>-2--2-2--5-5-5-5-|-7-7-7-7-|-7-7-7-7-|
A|-2-2-<2-2>--2-2--<2-2>-2--2-2--5-5-5-5-|-5-5-5-5-|-7-7-7-7-|
E|-2-2-<2-2>--2-2--<2-2>-2--2-2--5-5-5-5-|---------|-7-7-7-7-|
                                                              



Verse 1/Guitar 2         (0:29)
e|-------------------------------------|
B|----------------0--3-----------------|
G|-4~-------------0--2----4----2----4--|
D|-2~-----(0)-----2--0----2----0----2--|
A|-2~-----(0)-----2--0----2----0----2--|
E|-2~-----(0)-------------2----0----2--|
           .


          
Chorus 1/Guitar 1/CPart A     (c=chorus)
e|----------------------------------------|
B|----------------------------------------|
G|-5-5-5-5--5-5-5-5--7-7-7-7--12-12-11-11-|
D|-5-5-5-5--5-5-5-5--7-7-7-7--------------|
A|-3-3-3-3--3-3-3-3--5-5-5-5--10-10-9--9--|
E|----------------------------------------|
Guitar 2/CPart A
e|----------------------------------------|
B|----------------------------------------|
G|-5-5-5-5--5-5-5-5--7-7-7-7--7--7--7--7--|
D|-5-5-5-5--5-5-5-5--7-7-7-7--7--7--7--7--|
A|-3-3-3-3--3-3-3-3--5-5-5-5--5--5--5--5--|
E|----------------------------------------|

Guitar 1/CPart B
e|-------------------------------|
B|-------------------------------|
G|-12-12------12-11------11------|
D|-------------------------------|X2
A|-10-10------10-9-------9-------|
E|-------------------------------|
Guitar 2/CPart B
e|-------------------------------|
B|-------------------------------|
G|-------------------------------|
D|-2--2--2-2--2--2--2-2--2--2-2--|X2
A|-2--2--2-2--2--2--2-2--2--2-2--|
E|-2--2--2-2--2--2--2-2--2--2-2--|
         . .        . .     . .

Guitar 1/CPart C
e|----------------------------------------|
B|----------------------------------------|
G|-5-5-5-5--5-5-5-5--7-7-7-7--12-12-11-11-|
D|-5-5-5-5--5-5-5-5--7-7-7-7--------------|
A|-3-3-3-3--3-3-3-3--5-5-5-5--10-10-9--9--|
E|----------------------------------------|

Guitar 2
e|----------------------------------------|
B|----------------------------------------|
G|-5-5-5-5--5-5-5-5--7-7-7-7--------------|
D|-5-5-5-5--5-5-5-5--7-7-7-7--5---4-------|
A|-3-3-3-3--3-3-3-3--5-5-5-5--5---4-------|
E|----------------------------5---4-------|

Then Both Guitars play CPart B
Then

Guitar 1/CPart D
e|------------------------------------------|
B|------------------------------------------|
G|-9-9-9-9-9-9-9-9--7-7-7-7----7------------|
D|---------------------------------0----2~--|
A|-7-7-7-7-7-7-7-7--5-5-5-5----5---0----2~--|
E|---------------------------------0----2~--|

e|------------------------------------------|
B|------------------------------------------|
G|-5-5-5-5-5-5-5-5-------------7------------|
D|-3-5-5-5-5-5-5-5--5-5-5-5--------0----2~--|
A|-3-3-3-3-3-3-3-3--5-5-5-5----5---0----2~--|
E|------------------5-5-5-5--------0----2~--|




Verse 2/Guitar 2

E    D

Both Guitars
(1:17)
e|----------------------------------------------------------|
B|----------------------------------------------------------|
G|----------------------------------------------------------|
D|-2-------------2-----2-----2--0-------------0-----0-----0-|
A|-2-2-2-2-2-2-2-2-2-2-2-2-2-2--0-0-0-0-0-0-0-0-0-0-0-0-0-0-|
E|-2-2-2-2-2-2-2-2-2-2-2-2-2-2--0-0-0-0-0-0-0-0-0-0-0-0-0-0-|
     . . . . . .    . .   . .     . . . . . .   . .   . .                         

e|----------------------------------------|
B|----------------------------------------|
G|----------------------------------------|
D|-2-2--2-2--2-2--2-2--2--2-2--0-0-0-0-5~-|
A|-2-2--2-2--2-2--2-2--2--2-2--0-0-0-0-5~-|
E|-2-2--2-2--2-2--2-2--2--2-2--0-0-0-0-5~-|
        . .       . .               



Guitar 1+2 repeat chorus parts A-D
Then

(2:02)
e|-------------|
B|-------------|
G|-------------|
D|-2~------(2)-|
A|-2~------(2)-|
E|-2~------(2)-|

Interlude
Guitar 1/IPart A
e|---------------------------------------------------------------|
B|---------------------------------------------------------------|
G|---------------------------------------------------------------|
D|-2--2-----------2--2-----------2--2----------------------------|
A|-2--2--3-3-2----2--2--3-3-2----2--2--3-3-2---2-0---------------|
E|-2--2--------5--2--2--------5--2--2--------5-----5-0-----------|

Guitar 2/IPart A
e|---------------------------------------------------------------|
B|---------------------------------------------------------------|
G|---------------------------------------------------------------|
D|-2--2-----------2--2-----------2--2----------------------------|
A|-2--2-----------2--2-----------2--2----------------------------|
E|-2--2-----------2--2-----------2--2----------------------------|

Guitar 1/IPart B
e|---------------------------------------------------------------|
B|---------------------------------------------------------------|
G|---------------------------------------------------------------|
D|-2--2-----------2--2-----------2--2-2---2----------------------|
A|-2--2--3-3-2----2--2--3-3-2----2--2-2---2----------------------|
E|-2--2--------5--2--2--------5--2--2-2---2----------------------|
                                 .  . .   .                      
Guitar 2/IPart B
e|---------------------------------------------------------------|
B|---------------------------------------------------------------|
G|---------------------------------------------------------------|
D|-2--2-----------2--2-----------2--2-2---2----------------------|
A|-2--2-----------2--2-----------2--2-2---2----------------------|
E|-2--2-----------2--2-----------2--2-2---2----------------------|
                                 .  . .   .        

                                  
Then Both Guitar repeat Chorus Parts A-C twice
Then play Part D| Then


Outro/Both Guitars
e|-----------------------------|----------------------------|
B|-----------------------------|----------------------------|
G|-----------------------------|----------------------------|
D|-2-2--<2-2>--2-2---2-2--2--X2|-2-2--<2-2>--2-2--5-0-0--2~-|
A|-2-2--<2-2>--2-2---2-2--2----|-2-2--<2-2>--2-2--5-0-0--2~-|
E|-2-2--<2-2>--2-2---2-2--2----|-2-2--<2-2>--2-2--5-0-0--2~-|
                     . .  .                       . . .                           




Login to Edit
Edit
YouTube
Video
View Sheet Music
Sheet
Music
Print
Speed:
Play Intro (login for the full song)
Play
Intro
Sustain:
Download midi (intro) ...

 Rate:
5 star
4 star
3 star
2 star
1 star
 

Comments (0)
 

No comments yet...

Comment on this tab   -   Unhelpful comments are exterminated.
  Your Guest Name:
      [Member Login]
  Comments:
 

Don't understand the tab?
See "How to Read Guitar Tabs".
Supported tags:
<i>italics</i>
<b>bold</b>
<u>underline</u>
<tab>tab lines</tab>
  Are you a spam robot?

If not, solve the equation:




[561 TabNabbers online]
©2021 TabNabber.com - Musician Supported Contact us Advertising Merchandise Privacy Policy Terms of Use facebook Twitter