TabNabber Tabs   Musician Supported
  Music Tabs
Espa˝ol English
Franšais Русский
Artist: # A B C D E F G H I J K L M N O P Q R S T U V W X Y Z
bass

Bass Guitar Tab, Chords



(5 from 2 votes)
8,571 Views, Last Update 9 years ago
by: DANNYBASSMAN93
guest

Tabber
[Tabber]
BLACKEYED PEAS - MEET ME HALFWAY BASS TAB


INTRO

G|-------------|
D|-------------|
A|-2~----5~-7~-|
E|----5~-------| (X2)

Ooh, I can't go any further than this
G|-------------|
D|-------------|
A|-2~----5~-7~-|
E|----5~-------|     

Ooh, I want you so badly, it's my biggest wish
G|-------------|
D|-------------|
A|-2~----5~-7~-|
E|----5~-------|


VERSE

I spent my time just thinkin thinkin thinkin bout you
Every single day yes, i'm really missin' missin' you
G|-----------------------------------------------------------------|
D|-----------------------------------------------------------------|
A|-2-2-2-2-2-2-2-2-----------------5-5-5-5-5-5-5-5-7-7-7-7-7-7-7-7-|
E|-----------------5-5-5-5-5-5-5-5---------------------------------|

And all those things we use to use to use to do
Hey girl, wuz up, it use to be just me and you
G|-----------------------------------------------------------------|
D|-----------------------------------------------------------------|
A|-2-2-2-2-2-2-2-2-----------------5-5-5-5-5-5-5-5-7-7-7-7-7-7-7-7-|
E|-----------------5-5-5-5-5-5-5-5---------------------------------|

I spent my time just thinkin thinkin thinkin bout you
Every single day, yes i'm really missin missin you
G|-----------------------------------------------------------------|
D|-----------------------------------------------------------------|
A|-2-2-2-2-2-2-2-2-----------------5-5-5-5-5-5-5-5-7-7-7-7-7-7-7-7-|
E|-----------------5-5-5-5-5-5-5-5---------------------------------|

And all those things we use to use to use to do
Hey girl wuz up, wuz up, wuz up, wuz up
G|-----------------------------------------------------------------|
D|-----------------------------------------------------------------|
A|-2-2-2-2-2-2-2-2-----------------5-5-5-5-5-5-5-5-7-7-7-7-7-7-7-7-|
E|-----------------5-5-5-5-5-5-5-5---------------------------------|


CHORUS

Meet me halfway, right at the boarderline
That's where i'm gonna wait, for you
G|-----------------------------------------------------------------|
D|-----------------------------------------------------------------|
A|---------------------------------5-5-5-5-5-5-5-5-7-7-7-7-7-7-7-7-|
E|-7-7-7-7-7-7-7-7-5-5-5-5-5-5-5-5---------------------------------|

I'll be lookin out, night n'day
Took my heart to the limit, and this is where i'll stay
G|-----------------------------------------------------------------|
D|-----------------------------------------------------------------|
A|---------------------------------5-5-5-5-5-5-5-5-7-7-7-7-7-7-7-7-|
E|-7-7-7-7-7-7-7-7-5-5-5-5-5-5-5-5---------------------------------|

I can't go any further then this
G|-----------------------------------------------------------------|
D|-----------------------------------------------------------------|
A|---------------------------------5-5-5-5-5-5-5-5-7-7-7-7-7-7-7-7-|
E|-7-7-7-7-7-7-7-7-5-5-5-5-5-5-5-5---------------------------------|

I want you so bad it's my only wish
G|-----------------------------------------------------------------|
D|-----------------------------------------------------------------|
A|---------------------------------5-5-5-5-5-5-5-5-7-7-7-7-7-7-7-7-|
E|-7-7-7-7-7-7-7-7-5-5-5-5-5-5-5-5---------------------------------|


VERSE II

Girl,i travel round the world and even sail the seven seas
Across the universe I go to other galexies
G|-----------------------------------------------------------------|
D|-----------------------------------------------------------------|
A|-2-2-2-2-2-2-2-2-----------------5-5-5-5-5-5-5-5-7-7-7-7-7-7-7-7-|
E|-----------------5-5-5-5-5-5-5-5---------------------------------|

Just tell me where you want, just tell me where you wanna to meet
I navigate myself myself to take me where you be
G|-----------------------------------------------------------------|
D|-----------------------------------------------------------------|
A|-2-2-2-2-2-2-2-2-----------------5-5-5-5-5-5-5-5-7-7-7-7-7-7-7-7-|
E|-----------------5-5-5-5-5-5-5-5---------------------------------|

Cause girl I want, i, i, I want you right now
I travel uptown (town) I travel downtown
G|-----------------------------------------------------------------|
D|-----------------------------------------------------------------|
A|-2-2-2-2-2-2-2-2-----------------5-5-5-5-5-5-5-5-7-7-7-7-7-7-7-7-|
E|-----------------5-5-5-5-5-5-5-5---------------------------------|

I wanna to have you around (round) like every single day
I love you alway..way
G|-----------------------------------------------------------------|
D|-----------------------------------------------------------------|
A|-2-2-2-2-2-2-2-2-----------------5-5-5-5-5-5-5-5-7-7-7-7-7-7-7-7-|
E|-----------------5-5-5-5-5-5-5-5---------------------------------|


CHORUS II

Can you meet me half way (I'll meet you halfway)
Right at the boarderline
That's where i'm gonna wait, for you
G|-----------------------------------------------------------------|
D|-----------------------------------------------------------------|
A|---------------------------------5-5-5-5-5-5-5-5-7-7-7-7-7-7-7-7-|
E|-7-7-7-7-7-7-7-7-5-5-5-5-5-5-5-5---------------------------------|

I'll be lookin out, night n'day
Took my heart to the limit, and this is where i'll stay
G|-----------------------------------------------------------------|
D|-----------------------------------------------------------------|
A|---------------------------------5-5-5-5-5-5-5-5-7-7-7-7-7-7-7-7-|
E|-7-7-7-7-7-7-7-7-5-5-5-5-5-5-5-5---------------------------------|

I can't go any further then this
G|-----------------------------------------------------------------|
D|-----------------------------------------------------------------|
A|---------------------------------5-5-5-5-5-5-5-5-7-7-7-7-7-7-7-7-|
E|-7-7-7-7-7-7-7-7-5-5-5-5-5-5-5-5---------------------------------|

I want you so bad it's my only wish
G|-----------------------------------------------------------------|
D|-----------------------------------------------------------------|
A|---------------------------------5-5-5-5-5-5-5-5-7-7-7-7-7-7-7-7-|
E|-7-7-7-7-7-7-7-7-5-5-5-5-5-5-5-5---------------------------------|

I can't go any further then this
G|-----------------------------------------------------------------|
D|-----------------------------------------------------------------|
A|---------------------------------5-5-5-5-5-5-5-5-7-7-7-7-7-7-7-7-|
E|-7-7-7-7-7-7-7-7-5-5-5-5-5-5-5-5---------------------------------|

I want you so bad it's my only wish
G|-----------------------------------------------------------------|
D|-----------------------------------------------------------------|
A|---------------------------------5-5-5-5-5-5-5-5-7-7-7-7-7-7-7-7-|
E|-7-7-7-7-7-7-7-7-5-5-5-5-5-5-5-5---------------------------------|


BRIDGE

Let's walk the bridge, to the other side
Just you and I (just you and I)
G|--4-4-4-4-----------7-7-7-7--9-9-9-9-|
D|-----------7-7-7-7-------------------|
A|-2-2-2-2--0-0-0-0--5-5-5-5--7-7-7-7--|
E|-------------------------------------|

I will fly, i'll fly the skies, for you and I (for you and I)
G|--4-4-4-4-----------7-7-7-7--9-9-9-9-|
D|-----------7-7-7-7-------------------|
A|-2-2-2-2--0-0-0-0--5-5-5-5--7-7-7-7--|
E|-------------------------------------|

I will try, until I die, for you and i, for you and i, for for you and i,
G|--4-4-4-4-----------7-7-7-7--9-9-9-9-|
D|-----------7-7-7-7-------------------|
A|-2-2-2-2--0-0-0-0--5-5-5-5--7-7-7-7--|
E|-------------------------------------|

For for you and i, for for you and i, for you and i
G|--4-4-4-4-----------7-7-7-7--9-9-9-9-|
D|-----------7-7-7-7-------------------|
A|-2-2-2-2--0-0-0-0--5-5-5-5--7-7-7-7--|
E|-------------------------------------|


BRIDGE PART II

Can you meet me half way (yup yup)
G|---------|
D|---------|
A|-2~--5~--|
E|---------|

Can you meet me half way (yup yup)
G|---------|
D|---------|
A|-0~--7~--|
E|---------|

Can you meet me half way (yup yup)
G|---------|
D|---------|
A|-5~--7~--|
E|---------|

Can you meet me half way (yup yup)
G|-----|
D|-----|
A|-0~--|
E|-----|

CHORUS III

Meet me half way, right at the boarderline
That's where i'm gonna wait, for you
G|-----------------------------------------------------------------|
D|-----------------------------------------------------------------|
A|---------------------------------5-5-5-5-5-5-5-5-7-7-7-7-7-7-7-7-|
E|-7-7-7-7-7-7-7-7-5-5-5-5-5-5-5-5---------------------------------|

I'll be lookin out, night n'day
Took my heart to the limit, and this is where i'll stay
G|-----------------------------------------------------------------|
D|-----------------------------------------------------------------|
A|---------------------------------5-5-5-5-5-5-5-5-7-7-7-7-7-7-7-7-|
E|-7-7-7-7-7-7-7-7-5-5-5-5-5-5-5-5---------------------------------|

I can't go any further then this
G|-----------------------------------------------------------------|
D|-----------------------------------------------------------------|
A|---------------------------------5-5-5-5-5-5-5-5-7-7-7-7-7-7-7-7-|
E|-7-7-7-7-7-7-7-7-5-5-5-5-5-5-5-5---------------------------------|

I want you so bad it's my only wish
G|-----------------------------------------------------------------|
D|-----------------------------------------------------------------|
A|---------------------------------5-5-5-5-5-5-5-5-7-7-7-7-7-7-7-7-|
E|-7-7-7-7-7-7-7-7-5-5-5-5-5-5-5-5---------------------------------|

I can't go any further then this
G|-----------------------------------------------------------------|
D|-----------------------------------------------------------------|
A|---------------------------------5-5-5-5-5-5-5-5-7-7-7-7-7-7-7-7-|
E|-7-7-7-7-7-7-7-7-5-5-5-5-5-5-5-5---------------------------------|

I want you so bad it's my only wish
G|-----------------------------------------------------------------|
D|-----------------------------------------------------------------|
A|---------------------------------5-5-5-5-5-5-5-5-7-7-7-7-7-7-7-7-|
E|-7-7-7-7-7-7-7-7-5-5-5-5-5-5-5-5---------------------------------|

G|-----------------------------------------------------------------|
D|-----------------------------------------------------------------|
A|---------------------------------5-5-5-5-5-5-5-5-7-7-7-7-7-7-7-7-|
E|-7-7-7-7-7-7-7-7-5-5-5-5-5-5-5-5---------------------------------| (X2)


OUTRO

G|-------------|
D|-------------|
A|-2~----5~-7~-|
E|----5~-------| (X2)


_____________________________________________________________________________________

FOR ANYMORE TABS OR IF YOU HAVE ANY REQUESTS, COMMENTS OR SUGGESTIONS EMAIL ME AT:

danieli.castro8@gmail.com OR JOIN BASSMASTA.NET AND ADD ME (DANNYBASSMAN93)

ENJOY!!!



Login to Edit
Edit
YouTube
Video
View Sheet Music
Sheet
Music
Print
Speed:
Play Intro (login for the full song)
Play
Intro
Sustain:
Download midi (intro) ...

2 Votes
5 star: 100%  (2)
4 star:  (0)
3 star:  (0)
2 star:  (0)
1 star:  (0)
0 star:  (0)
 Rate:
5 star
4 star
3 star
2 star
1 star
 

Comments (0)
 

No comments yet...

Comment on this tab   -   Unhelpful comments are exterminated.
  Your Guest Name:
      [Member Login]
  Comments:
 

Don't understand the tab?
See "How to Read Guitar Tabs".
Supported tags:
<i>italics</i>
<b>bold</b>
<u>underline</u>
<tab>tab lines</tab>
  Are you a spam robot?

If not, solve the equation:




[1168 TabNabbers online]
©2021 TabNabber.com - Musician Supported Contact us Advertising Merchandise Privacy Policy Terms of Use facebook Twitter