TabNabber Tabs   Musician Supported
  Music Tabs
Espa˝ol English
Franšais Русский
Artist: # A B C D E F G H I J K L M N O P Q R S T U V W X Y Z
guitar

Guitar Tab, Chords

Featured! Featured! Featured!

(5 from 3 votes)
13,707 Views, Last Update 8 years ago
by: Arkbot


New Tabber
[New Recruit]
e|5-------5-------5-------5-------3-------3-------3-------3-------|
B|--5-------5-------5-------5-------3-------3-----------3---3-----|
G|----7-------7-------7-------7-------5-------5-------5-------5---|
D|------7-------7-------7-------7-------5-------5---5-----------5-|
A|----------------------------------------------------------------|
E|----------------------------------------------------------------|

e|1-------1-------1-------1-------------0-------0-------3-------3-|
B|--1-------1-------1-------1---------0-------0-------3-------3---|
G|----4-------4-------4-------4-----2-------2-------5-------5-----|
D|------3-------3-------3-------3-2-------2-------5-------5-------|
A|----------------------------------------------------------------|
E|----------------------------------------------------------------|

e|5-------5-------5-------5-------3-------3-------3-------3-------|
B|--5-------5-------5-------5-------3-------3-----------3---3-----|
G|----7-------7-------7-------7-------5-------5-------5-------5---|
D|------7-------7-------7-------7-------5-------5---5-----------5-|
A|----------------------------------------------------------------|
E|----------------------------------------------------------------|

e|1-------1-------1-------1-------------0-------0-------3-------3-|
B|--1-------1-------1-------1---------0-------0-------3-------3---|
G|----4-------4-------4-------4-----2-------2-------5-------5-----|
D|------3-------3-------3-------3-2-------2-------5-------5-------|
A|----------------------------------------------------------------|
E|----------------------------------------------------------------|

e|5-------5-------5-------5-------3-------3-------3-------3-------|
B|--5-------5-------5-------5-------3-------3-----------3---3-----|
G|----7-------7-------7-------7-------5-------5-------5-------5---|
D|------7-------7-------7-------7-------5-------5---5-----------5-|
A|----------------------------------------------------------------|
E|----------------------------------------------------------------|

e|1-------1-------1-------1-------------0-------0-------3-------3-|
B|--1-------1-------1-------1---------0-------0-------3-------3---|
G|----4-------4-------4-------4-----2-------2-------5-------5-----|
D|------3-------3-------3-------3-2-------2-------5-------5-------|
A|----------------------------------------------------------------|
E|----------------------------------------------------------------|

e|5-------5-------5-------5-------3-------3-------3-------3-------|
B|--5-------5-------5-------5-------3-------3-----------3---3-----|
G|----7-------7-------7-------7-------5-------5-------5-------5---|
D|------7-------7-------7-------7-------5-------5---5-----------5-|
A|----------------------------------------------------------------|
E|----------------------------------------------------------------|

e|1-------1-------1-------1-------------0-------0-------3-------3-|
B|--1-------1-------1-------1---------0-------0-------3-------3---|
G|----4-------4-------4-------4-----2-------2-------5-------5-----|
D|------3-------3-------3-------3-2-------2-------5-------5-------|
A|----------------------------------------------------------------|
E|----------------------------------------------------------------|

Chorus
[Cm]                              [Ddim]
e|3---------------------3---3---3-1---------------------1---1---1-|
B|4---------------------4---4---4-0---------------------0---0---0-|
G|5---------------------5---5---5-1---------------------1---1---1-|
D|5---------------------5---5---5-0---------------------0---0---0-|
A|3---------------------3---3---3---------------------------------|
E|----------------------------------------------------------------|
  sustain                           sustain

[E]                              [Fm]
e|0---------------------0-0-0-0-0-1---------------------1---1---1-|
B|0---------------------0-0-0-0-0-1---------------------1---1---1-|
G|1---------------------1-1-1-1-1-1---------------------1---1---1-|
D|2---------------------2-2-2-2-2-3---------------------3---3---3-|
A|2---------------------2-2-2-2-2-3---------------------3---3---3-|
E|0---------------------0-0-0-0-0-1---------------------1---1---1-|
  sustain                          sustain

[G]                              [G#]
e|3---------------------3---3---3-4---------------------4---4---4-|
B|0---------------------0---0---0-4---------------------4---4---4-|
G|0---------------------0---0---0-5---------------------5---5---5-|
D|0---------------------0---0---0-6---------------------6---6---6-|
A|2---------------------2---2---2-6---------------------6---6---6-|
E|3---------------------3---3---3-4---------------------4---4---4-|
  sustain                          sustain

[Bdim]                              [Cm]
e|1---------------------1-1-1---1-3---------------3---------------|
B|0---------------------0-0-0---0-4---------------4---------------|
G|1---------------------1-1-1---1-5---------------5---------------|
D|0---------------------0-0-0---0-5---------------5---------------|
A|--------------------------------3---------------3---------------|
E|----------------------------------------------------------------|
  sustain                          sustain

e|5-------5-------5-------5-------3-------3-------3-------3-------|
B|----------------------------------------------------------------|
G|----7-------7-------7-------7-------5-------5-------5-------5---|
D|----------------------------------------------------------------|
A|----------------------------------------------------------------|
E|----------------------------------------------------------------|

e|1-------1-------1-------1---------------------------------------|
B|------------------------------------0-------0-------3-------3---|
G|----4-------4-------4-------4-----------------------------------|
D|--------------------------------2-------2-------5-------5-------|
A|----------------------------------------------------------------|
E|----------------------------------------------------------------|

e|5-------5-------5-------5-------3-------3-------3-------3-------|
B|--5-------5-------5-------5-------3-------3-----------3---3-----|
G|----7-------7-------7-------7-------5-------5-------5-------5---|
D|------7-------7-------7-------7-------5-------5---5-----------5-|
A|----------------------------------------------------------------|
E|----------------------------------------------------------------|

e|1-------1-------1-------1-------------0-------0-------3-------3-|
B|--1-------1-------1-------1---------0-------0-------3-------3---|
G|----4-------4-------4-------4-----2-------2-------5-------5-----|
D|------3-------3-------3-------3-2-------2-------5-------5-------|
A|----------------------------------------------------------------|
E|----------------------------------------------------------------|

e|5-------5-------5-------5-------3-------3-------3-------3-------|
B|--5-------5-------5-------5-------3-------3-----------3---3-----|
G|----7-------7-------7-------7-------5-------5-------5-------5---|
D|------7-------7-------7-------7-------5-------5---5-----------5-|
A|----------------------------------------------------------------|
E|----------------------------------------------------------------|

e|1-------1-------1-------1-------------0-------0-------3-------3-|
B|--1-------1-------1-------1---------0-------0-------3-------3---|
G|----4-------4-------4-------4-----2-------2-------5-------5-----|
D|------3-------3-------3-------3-2-------2-------5-------5-------|
A|----------------------------------------------------------------|
E|----------------------------------------------------------------|

e|5-------5-------5-------5-------3-------3-------3-------3-------|
B|--5-------5-------5-------5-------3-------3-----------3---3-----|
G|----7-------7-------7-------7-------5-------5-------5-------5---|
D|------7-------7-------7-------7-------5-------5---5-----------5-|
A|----------------------------------------------------------------|
E|----------------------------------------------------------------|

e|1-------1-------1-------1-------------0-------0-------3-------3-|
B|--1-------1-------1-------1---------0-------0-------3-------3---|
G|----4-------4-------4-------4-----2-------2-------5-------5-----|
D|------3-------3-------3-------3-2-------2-------5-------5-------|
A|----------------------------------------------------------------|
E|----------------------------------------------------------------|

Chorus
[cmin]                              [ddim]
e|3---------------------3---3---3-1---------------------1---1---1-|
B|4---------------------4---4---4-0---------------------0---0---0-|
G|5---------------------5---5---5-1---------------------1---1---1-|
D|5---------------------5---5---5-0---------------------0---0---0-|
A|3---------------------3---3---3---------------------------------|
E|----------------------------------------------------------------|
  sustain                           sustain

[Emaj]                              [fmin]
e|0---------------------0-0-0-0-0-1---------------------1---1---1-|
B|0---------------------0-0-0-0-0-1---------------------1---1---1-|
G|1---------------------1-1-1-1-1-1---------------------1---1---1-|
D|2---------------------2-2-2-2-2-3---------------------3---3---3-|
A|2---------------------2-2-2-2-2-3---------------------3---3---3-|
E|0---------------------0-0-0-0-0-1---------------------1---1---1-|
  sustain                          sustain

[Gmaj]                              [G#maj]
e|3---------------------3---3---3-4---------------------4---4---4-|
B|0---------------------0---0---0-4---------------------4---4---4-|
G|0---------------------0---0---0-5---------------------5---5---5-|
D|0---------------------0---0---0-6---------------------6---6---6-|
A|2---------------------2---2---2-6---------------------6---6---6-|
E|3---------------------3---3---3-4---------------------4---4---4-|
  sustain                          sustain

[bdim]                              [cmin]
e|1---------------------1-1-1---1-3---------------3---------------|
B|0---------------------0-0-0---0-4---------------4---------------|
G|1---------------------1-1-1---1-5---------------5---------------|
D|0---------------------0-0-0---0-5---------------5---------------|
A|--------------------------------3---------------3---------------|
E|----------------------------------------------------------------|
  sustain                          sustain

e|5-----------------------3---5---5-------------7-3-------------5-|
B|-----------------------3----------------------------------------|
G|----------------------2-----------------------------------------|
D|----------------------------------------------------------------|
A|----------------------------------------------------------------|
E|----------------------------------------------------------------|

e|----------------------------1---1-----------3---------------1---|
B|6-----------------------3---------------------5---------------3-|
G|----------------------4-------------------------5---------------|
D|--------------------3-------------------------------------------|
A|----------------------------------------------------------------|
E|----------------------------------------------------------------|

e|------------------------------------------1---------------------|
B|--------------------------------3-----------3-------------------|
G|4-------------------4---4-----4---------------4---------------2-|
D|------------------5---5-----3-------------------5---------3-3---|
A|----------------------------------------------------------------|
E|----------------------------------------------------------------|

e|--------------------------------3---------------sustain---------|
B|1---------------5-------------5---------------------------------|
G|--------------5-----------5-5-----------------------------------|
D|----------7-7---------------------------------------------------|
A|----------------------------------------------------------------|
E|----------------------------------------------------------------|

Chorus
[cmin]                              [ddim]
e|3---------------------3---3---3-1---------------------1---1---1-|
B|4---------------------4---4---4-0---------------------0---0---0-|
G|5---------------------5---5---5-1---------------------1---1---1-|
D|5---------------------5---5---5-0---------------------0---0---0-|
A|3---------------------3---3---3---------------------------------|
E|----------------------------------------------------------------|
  sustain                           sustain

[Emaj]                              [fmin]
e|0---------------------0-0-0-0-0-1---------------------1---1---1-|
B|0---------------------0-0-0-0-0-1---------------------1---1---1-|
G|1---------------------1-1-1-1-1-1---------------------1---1---1-|
D|2---------------------2-2-2-2-2-3---------------------3---3---3-|
A|2---------------------2-2-2-2-2-3---------------------3---3---3-|
E|0---------------------0-0-0-0-0-1---------------------1---1---1-|
  sustain                          sustain

[Gmaj]                              [G#maj]
e|3---------------------3---3---3-4---------------------4---4---4-|
B|0---------------------0---0---0-4---------------------4---4---4-|
G|0---------------------0---0---0-5---------------------5---5---5-|
D|0---------------------0---0---0-6---------------------6---6---6-|
A|2---------------------2---2---2-6---------------------6---6---6-|
E|3---------------------3---3---3-4---------------------4---4---4-|
  sustain                          sustain

[bdim]                              [cmin]
e|1---------------------1-1-1---1-3---------------3---------------|
B|0---------------------0-0-0---0-4---------------4---------------|
G|1---------------------1-1-1---1-5---------------5---------------|
D|0---------------------0-0-0---0-5---------------5---------------|
A|--------------------------------3---------------3---------------|
E|----------------------------------------------------------------|
  sustain                          sustain

[cmin]                              [ddim]
e|3-------------------------------1-------------------------------|
B|4-------------------------------0-------------------------------|
G|5-------------------------------1-------------------------------|
D|5-------------------------------0-------------------------------|
A|3---------------------------------------------------------------|
E|----------------------------------------------------------------|
  sustain                           sustain

[Emaj]                              [fmin]
e|0-------------------------------1-------------------------------|
B|0-------------------------------1-------------------------------|
G|1-------------------------------1-------------------------------|
D|2-------------------------------3-------------------------------|
A|2-------------------------------3-------------------------------|
E|0-------------------------------1-------------------------------|
  sustain                          sustain

[Gmaj]                              [G#maj]
e|3---------------------3---3---3-4---------------------4---4---4-|
B|0---------------------0---0---0-4---------------------4---4---4-|
G|0---------------------0---0---0-5---------------------5---5---5-|
D|0---------------------0---0---0-6---------------------6---6---6-|
A|2---------------------2---2---2-6---------------------6---6---6-|
E|3---------------------3---3---3-4---------------------4---4---4-|
  sustain                          sustain

[bdim]                              [cmin]
e|1---------------------1-1-1---1-3-------------------------------|
B|0---------------------0-0-0---0-4-------------------------------|
G|1---------------------1-1-1---1-5-------------------------------|
D|0---------------------0-0-0---0-5-------------------------------|
A|--------------------------------3-------------------------------|
E|----------------------------------------------------------------|
  sustain                          sustain


Login to Edit
Edit
YouTube
Video
View Sheet Music
Sheet
Music
Print
Speed:
Play Intro (login for the full song)
Play
Intro
Sustain:
Download midi (intro) ...

3 Votes
5 star: 100%  (3)
4 star:  (0)
3 star:  (0)
2 star:  (0)
1 star:  (0)
0 star:  (0)
 Rate:
5 star
4 star
3 star
2 star
1 star
 

Comments (0)
 

No comments yet...

Comment on this tab   -   Unhelpful comments are exterminated.
  Your Guest Name:
      [Member Login]
  Comments:
 

Don't understand the tab?
See "How to Read Guitar Tabs".
Supported tags:
<i>italics</i>
<b>bold</b>
<u>underline</u>
<tab>tab lines</tab>
  Are you a spam robot?

If not, solve the equation:




[69 TabNabbers online]
©2020 TabNabber.com - Musician Supported Contact us Advertising Merchandise Privacy Policy Terms of Use facebook Twitter