TabNabber Tabs   Musician Supported
  Music Tabs
Espa˝ol English
Franšais Русский
Artist: # A B C D E F G H I J K L M N O P Q R S T U V W X Y Z
guitar

Guitar Tab, Chords

Featured! Featured! Featured!

(5 from 4 votes)
21,243 Views, Last Update 8 years ago
by: JakeBezRy


Tabbenator
[Tabbenator]
e|---------0-----|---------0------|-3-------3-----|-0-------0-----|---------0-----|
B|-1---1-------3-|-3---3--------3-|-----1-------1-|-----1-------1-|-3---3-------3-|
G|---2-------2---|---2-------2----|---2-------2---|---2-------2---|---2-------2---|
D|-3-----3-------|-3-----3--------|-3-----3-------|-3-----3-------|-3-----3-------|
A|---------------|----------------|---------------|---------------|---------------|
E|---------------|----------------|---------------|---------------|---------------|

e|---------0-----|-3-------3-----|-0-------0-----|-------0-------0-------0-------0-|
B|-1---1-------3-|-----1-------1-|-----1-------1-|---1-------1-------1-------1-----|
G|---2-------2---|---2-------2---|---2-------2---|-----2-------2-------2-------2---|
D|-3-----3-------|-3-----3-------|-3-----3-------|-3-------3-------3-------3-------|
A|---------------|---------------|---------------|---------------------------------|
E|---------------|---------------|---------------|---------------------------------|

E|-------0-------0-------0-------0-|-------3-------3-------3-------3-|
B|---3-------3-------3-------3-----|---1-------1-------1-------1-----|
G|-----2-------2-------2-------2---|-----2-------2-------2-------2---|
D|-3-------3-------3-------3-------|-3-------3-------3-------3-------|
A|---------------------------------|---------------------------------|
E|---------------------------------|---------------------------------|

E|-------0-------0-------0-------0-|---------------------------------|
B|---1-------1-------1-------1-----|---1---1---1---1---1---1---1---1-|
G|-----2-------2-------2-------2---|-----2-------2-------2-------2---|
D|-3-------3-------3-------3-------|-3-------3-------3-------3-------|
A|---------------------------------|---------------------------------|
E|---------------------------------|---------------------------------|

E|---------------------------------|---------------------------------|
B|---1---1---1---1---1---1---1---1-|---3---3---3---3---3---3---3---3-|
G|-----0-------0-------0-------0---|-----2-------2-------2-------2---|
D|-2-------2-------2-------2-------|-0-------0-------0-------0-------|
A|---------------------------------|---------------------------------|
E|---------------------------------|---------------------------------|

e|---------------------------------|---------------------------------|
B|---1---1---1---1---1---1---1---1-|---1---1---1---1---1---1---1---1-|
G|-----2-------2-------2-------2---|-----0-------0-------0-------0---|
D|-3-------3-------3-------3-------|-2-------2-------2-------2-------|
A|---------------------------------|---------------------------------|
E|---------------------------------|---------------------------------|

e|-------------------------------|-1-1-1-1-1--0-0-0-0-0--1-1-1-1-1--0-0-0-0-0-|
B|---3---3---3---3---3---3---3---|-3-3-3-3-3--3-3-3-3-3--3-3-3-3-3--3-3-3-3-3-|
G|-----2-------2-------2-------2-|-2-2-2-2-2--2-2-2-2-2--2-2-2-2-2--2-2-2-2-2-|
D|-0-------0-------0-------0-----|-0-0-0-0-0--0-0-0-0-0--0-0-0-0-0--0-0-0-0-0-|
A|-------------------------------|-0-0-0-0-0--0-0-0-0-0--0-0-0-0-0--0-0-0-0-0-|
E|-------------------------------|-0-0-0-0-0--0-0-0-0-0--0-0-0-0-0--0-0-0-0-0-|

e|-0-0-0-0-0--0-0-0-0-0--0-0-0-0-0--0-0-0-0-0-|-0-0-0-0-0--0-0-0-0-0--0-0-0-0-0--0-0-0-0-0-|
B|-1-1-1-1-1--0-0-0-0-0--1-1-1-1-1--0-0-0-0-0-|-1-1-1-1-1--0-0-0-0-0--1-1-1-1-1--0-0-0-0-0-|
G|-2-2-2-2-2--2-2-2-2-2--2-2-2-2-2--2-2-2-2-2-|-0-0-0-0-0--0-0-0-0-0--0-0-0-0-0--0-0-0-0-0-|
D|-2-2-2-2-2--2-2-2-2-2--2-2-2-2-2--2-2-2-2-2-|-2-2-2-2-2--2-2-2-2-2--2-2-2-2-2--2-2-2-2-2-|
A|-0-0-0-0-0--0-0-0-0-0--0-0-0-0-0--0-0-0-0-0-|-3-3-3-3-3--3-3-3-3-3--3-3-3-3-3--3-3-3-3-3-|
E|-0-0-0-0-0--0-0-0-0-0--0-0-0-0-0--0-0-0-0-0-|-3-3-3-3-3--3-3-3-3-3--3-3-3-3-3--3-3-3-3-3-|

e|-0-0-0-0-0--0-0-0-0-0--0-0-0-0-0--0-0-0-0-0-|-0-0-0-0-0--3-3-3-3-3--0-0-0-0-0--0-0-0-0-0-|
B|-1-1-1-1-1--0-0-0-0-0--1-1-1-1-1--0-0-0-0-0-|-0-0-0-0-0--3-3-3-3-3--3-3-3-3-3--0-0-0-0-0-|
G|-2-2-2-2-2--2-2-2-2-2--2-2-2-2-2--2-2-2-2-2-|-0-0-0-0-0--0-0-0-0-0--0-0-0-0-0--0-0-0-0-0-|
D|-2-2-2-2-2--2-2-2-2-2--2-2-2-2-2--2-2-2-2-2-|-2-2-2-2-2--0-0-0-0-0--2-2-2-2-2--2-2-2-2-2-|
A|-0-0-0-0-0--0-0-0-0-0--0-0-0-0-0--0-0-0-0-0-|-2-2-2-2-2--2-2-2-2-2--3-3-3-3-3--2-2-2-2-2-|
E|-0-0-0-0-0--0-0-0-0-0--0-0-0-0-0--0-0-0-0-0-|-0-0-0-0-0--3-3-3-3-3--0-0-0-0-0--0-0-0-0-0-|

e|-0-0-0-0-0--0-0-0-0-0--0-0-0-0-0-0-|
B|-1-1-1-1-1--1-1-1-1-1--0-0-0-0-0-0-|
G|-0-0-0-0-0--2-2-2-2-2--0-0-0-0-0-0-|
D|-2-2-2-2-2--2-2-2-2-2--2-2-2-2-2-2-|
A|-3-3-3-3-3--0-0-0-0-0--2-2-2-2-2-2-|
E|-3-3-3-3-3--0-0-0-0-0--0-0-0-0-0-0-|

LIKE "My Heart's Asunder" on Facebook!


Login to Edit
Edit
YouTube
Video
View Sheet Music
Sheet
Music
Print
Speed:
Play Intro (login for the full song)
Play
Intro
Sustain:
Download midi (intro) ...

4 Votes
5 star: 100%  (4)
4 star:  (0)
3 star:  (0)
2 star:  (0)
1 star:  (0)
0 star:  (0)
 Rate:
5 star
4 star
3 star
2 star
1 star
 

Comments (1)
 

BA


Admin
[Admin]

8 years ago
Hey this is really good, so I just featured on the home page! (may take a few minutes to show up) http://tabnabber.com

Reply

Comment on this tab   -   Unhelpful comments are exterminated.
  Your Guest Name:
      [Member Login]
  Comments:
 

Don't understand the tab?
See "How to Read Guitar Tabs".
Supported tags:
<i>italics</i>
<b>bold</b>
<u>underline</u>
<tab>tab lines</tab>
  Are you a spam robot?

If not, solve the equation:




[69262 TabNabbers online]
©2021 TabNabber.com - Musician Supported Contact us Advertising Merchandise Privacy Policy Terms of Use facebook Twitter