TabNabber Tabs   Musician Supported
  Music Tabs
Espa˝ol English
Franšais Русский
Artist: # A B C D E F G H I J K L M N O P Q R S T U V W X Y Z
Piano

Synth / Piano Tab, Chords



(0 from 0 votes)
7,648 Views, Last Update 6 years ago
by: Ulshman


Tabber
[Tabber]
Tablature Explanation 
down = strings 6 - 1
across = frets 1 - 5
0--1--|--2--|--3--|--4--|--5--|
E--F--|--F#-|--G--|--G#-|--A--|
B--C--|--C#-|--D--|--D#-|--E--|
G--G#-|--A--|--A#-|--B--|--C--|
D--D#-|--E--|--F--|--F#-|--G--|
A--A#-|--B--|--C--|--C#-|--D--|
E--F--|--F#-|--G--|--G#-|--A--|


Intro:   (Play 12 times)      
E|--------------------------------|--------------------------------|--------------------------------|--------------------------------|
B|--------------------------------|--------------------------------|--------------------------------|--------------------------------|
G|-------------0------------------|--------------------------------|--------------------------------|--------------------------------|
D|--------2-----------------2-----|--------------------------------|--------------------------------|--------------------------------|
A|----------------1---0-----------|--------------------------------|--------------------------------|--------------------------------|
E|----0---------------------------|--------------------------------|--------------------------------|--------------------------------|

Rhy. Fill 1.
                                F5
E|----------------------------------|--------------------------------|--------------------------------|--------------------------------|
B|----------------------------------|--------------------------------|--------------------------------|--------------------------------|
G|----------------------------------|--------------------------------|--------------------------------|--------------------------------|
D|----------------------------------|--------------------------------|--------------------------------|---2----------------------------|
A|------------------------------3---|--------------------------------|--------------------------------|-------1------------------------|
E|--0---0---0---0---0---0-------1---|--------------------------------|--------------------------------|--------------------------------|
    |-------------3x-------------|

Rhy. Fill II. (play 7 times)
            F5
E|--------------------------------------|--------------------------------|--------------------------------|--------------------------------|
B|--------------------------------------|--------------------------------|--------------------------------|--------------------------------|
G|--------------------------------------|--------------------------------|--------------------------------|--------------------------------|
D|-----------------------2--------------|--------------------------------|--------------------------------|--------------------------------|
A|-----------3---------------1---0------|--------------------------------|--------------------------------|--------------------------------|
E|--0---0---1---0---0-------------------|--------------------------------|--------------------------------|--------------------------------|

Main Riff (play 2 times)
     E5   E5                                                                    G5  E5 F#5  E5 F#5 G5  F#5 E5
E|--------------------------------------|--------------------------------|-----------------------------------------|--------------------------------|
B|--------------------------------------|--------------------------------|-----------------------------------------|--------------------------------|
G|--------------------------------------|--------------------------------|-----------------------------------------|--------------------------------|
D|-----------------------2--------------|--------------------------------|------0-------------------0--------------|--------------------------------|
A|--2-------2---------------1---0-------|--------------------------------|----------2---4---2---4-------4---2------|--------------------------------|
E|--0-------0---------------------------|--------------------------------|--0---3---0---2---0---2---3---2---0------|--------------------------------|
  |---------------3x-------------------|

Verses                             F                                  F                                      G5  E5  F#5 E5 F#5  G5  F#5 E5                           
E|------------------------------------|-----------------------------------|------------------------------|-------------------------------------|
B|------------------------------------|-----------------------------------|------------------------------|-------------------------------------|
G|------------------------------------|-----------------------------------|------------------------------|-------------------------------------|
D|------------------------------------|-----------------------------------|------------------------------|---0-------------------0-------------|
A|--------------------------------3---|-------------------------------3---|------------------------------|-------2---4---2---4-------4---2-----|
E|--0---0---0---0---0---0---0-----1---|--0---0---0---0---0---0---0----1---|--0---0---0---0---0---0---0---|---3---0---2---0---2---3---2---0-----|
    Say your prayers, little     one      Don't  forget,  my         son         To      include   every    one
    Tuck you in,         warm within       Keep you free from         sin      Till the sandman,      He  comes

Pre Chorus (play 4 times)
E|------------------------------|--------------------------------|--------------------------------|--------------------------------|
B|------------------------------|--------------------------------|--------------------------------|--------------------------------|
G|-------------2----------------|--------------------------------|--------------------------------|--------------------------------|
D|--------4-----------------4---|--------------------------------|--------------------------------|--------------------------------|
A|----------------3---2---------|--------------------------------|--------------------------------|--------------------------------|
E|----2-------------------------|--------------------------------|--------------------------------|--------------------------------|
                Sleep with one eye open                      Gripping your pillow tight

Chorus
  F#5       B5      F#5     B5           F5#     B5     E5        G5      A5       A#5
E|------------------------------------|-----------------------------------------------------|
B|------------------------------------|-----------------------------------------------------|
G|------------------------------------|-----------------------------------------------------|
D|----------4---------------4---------|----------4----------------0--------2--------3-------|
A|--4---0---2---0---4---0---2--0------|--4---0---2---0---2-----------------0--------1-------|
E|--2---------------2-----------------|--2---------------0---0----3---0---------0-------0---|
    Exit            light               Enter         night
  
    F5#      B5     E5                              G5  E5 F#5  E5 F#5 G5  F#5
E|----------------------------------------------|------------------------------------|
B|----------------------------------------------|------------------------------------|
G|----------------------------------------------|------------------------------------|
D|----------4-----------------------------------|---0-------------------0------------|
A|--4---0---2---0---2---------------------------|-------2---4---2---4-------4--------|
E|--2---------------0---0---0---0---0---0---0---|---3---0---2---0---2---3---2--------|
   Take         my hand                       We're off to never never land     (+) repeat from main riff

Verse 2
Something's wrong, shut the light
Heavy thoughts tonight
And they aren't of Snow White
Dreams of War, dreams of lies
Dreams of dragon's fire
And of things that will bite, yeah!


Login to Edit
Edit
YouTube
Video
View Sheet Music
Sheet
Music
Voice / Instrument / Track Legend
Instr.
Map
Print
Speed:
Play Intro (login for the full song)
Play
Intro
Sustain:
Download midi (intro) ...

 Rate:
5 star
4 star
3 star
2 star
1 star
 

Comments (0)
 

No comments yet...

Comment on this tab   -   Unhelpful comments are exterminated.
  Your Guest Name:
      [Member Login]
  Comments:
 

Don't understand the tab?
See "How to Read Piano Tabs".
Supported tags:
<i>italics</i>
<b>bold</b>
<u>underline</u>
<tab>tab lines</tab>
  Are you a spam robot?

If not, solve the equation:




[603 TabNabbers online]
©2020 TabNabber.com - Musician Supported Contact us Advertising Merchandise Privacy Policy Terms of Use facebook Twitter