TabNabber Tabs   Musician Supported
  Music Tabs
Espa˝ol English
Franšais Русский
Artist: # A B C D E F G H I J K L M N O P Q R S T U V W X Y Z
guitar

Guitar Tab, Chords



(5 from 1 votes)
10,442 Views, Last Update 7 years ago
by: BA


Admin
[Admin]
I dedicate this song to my wife

e|------------------------------|------------------|----------------|-------------------|
b|------------------------------|------------------|----------------|-------------------|
g|------------------------------|------------------|----------------|-------------------|
d|------------------------------|------------------|----------------|-------------------|
a|----10------10----------------|----10------10----|----------------|-------------------|
e|8-----8-7-----7-5-----0---5-7-|8-----8-7-----7-5-|----0---5-7-8---|----0---5-0-3-5----|

e|--------------------------------|-------------------------------|
b|--------------------------------|-------------------------------|
g|--------------------------------|-------------------------------|
d|--------------------------------|2---2---2---2---2---2---2------|
a|10--10--10--10--10--10--10------|10--10--10--10--10--10--10-----|
e|8-8-8-8-7-7-7-7-5-5-5-5-3-3-3-3-|8-8-8-8-7-7-7-7-5-5-5-5-3---5-7|

e|------------------------------|------------------|----------------|-----------------|
b|------------------------------|------------------|----------------|-----------------|
g|------------------------------|------------------|----------------|-----------------|
d|------------------------------|------------------|----------------|-----------------|
a|----10------10----------------|----10------10----|----------------|-----------------|
e|8-----8-7-----7-5-----0---5-7-|8-----8-7-----7-5-|----0---5-7-8---|----0---5-0-3-5--|

e|--------------------------------|-------------------------------|
b|--------------------------------|-------------------------------|
g|--------------------------------|-------------------------------|
d|--------------------------------|2---2---2---2---2---2---2------|
a|10--10--10--10--10--10--10------|10--10--10--10--10--10--10-----|
e|8-8-8-8-7-7-7-7-5-5-5-5-3-3-3-3-|8-8-8-8-7-7-7-7-5-5-5-5-3---5-7|

e||-------------------------------|--------------------------------
b||-------------------------------|--------------------------------
g||-------------------------------|--------------------------------
d||------2---2---2---2---2---2---2|--------------------------------
a||-----10--10--10--10--10--10--10|------10--10--10--10--10--10--10
e||7-5---3-5-5-5-5-7-7-7-7-8-8-8-8|-3-3-3-3-5-5-5-5-7-7-7-7-8-8-8-8


e||-----------------|----------------|------------------|------------------------------
b||-----------------|----------------|------------------|------------------------------
g||-----------------|----------------|------------------|------------------------------
d||-----------------|----------------|------------------|------------------------------
a||-----------------|----------------|----10------10----|----------------10------10----
e||--5-3-0-5---0----|---8-7-5---0----|-5-7-----7-8-----8|-7-5---0-----5-7-----7-8-----8

e||-------------------|----------------|------------------|------------------------------
b||-------------------|----------------|------------------|------------------------------
g||-------------------|----------------|------------------|------------------------------
d||-------------------|----------------|------------------|------------------------------
a||-------------------|----------------|----10------10----|----------------10------10----
e||----5-3-0-5---0----|---8-7-5---0----|-5-7-----7-8-----8|-7-5---0-----5-7-----7-8-----8


Login to Edit
Edit
YouTube
Video
View Sheet Music
Sheet
Music
Print
Speed:
Play Intro (login for the full song)
Play
Intro
Sustain:
Download midi (intro) ...

1 Votes
5 star: 100%  (1)
4 star:  (0)
3 star:  (0)
2 star:  (0)
1 star:  (0)
0 star:  (0)
 Rate:
5 star
4 star
3 star
2 star
1 star
 

Comments (0)
 

No comments yet...

Comment on this tab   -   Unhelpful comments are exterminated.
  Your Guest Name:
      [Member Login]
  Comments:
 

Don't understand the tab?
See "How to Read Guitar Tabs".
Supported tags:
<i>italics</i>
<b>bold</b>
<u>underline</u>
<tab>tab lines</tab>
  Are you a spam robot?

If not, solve the equation:




[284 TabNabbers online]
©2021 TabNabber.com - Musician Supported Contact us Advertising Merchandise Privacy Policy Terms of Use facebook Twitter