TabNabber Tabs   Musician Supported
  Music Tabs
Espa˝ol English
Franšais Русский
Artist: # A B C D E F G H I J K L M N O P Q R S T U V W X Y Z
guitar

Guitar Tab, Chords

Featured! Featured! Featured!

(5 from 1 votes)
8,813 Views, Last Update 7 years ago
by: Bill Maher
guest
[Guest]
e|----------------|----------------|
B|----------------|----------------|
G|--------0-------|--------0-------|
D|------4---4-----|------4---4-----|x2
A|----5-------5---|----5-------3-5-|
E|--3-------------|--3-------------|

e|----------------|e----------------|
B|----------------|B----------------|
G|------4---------|G------4---------|
D|----5---5-------|D----5---2-5-----|x2
A|--3-------------|A--3-------------|
E|----------------|E----------------|


Login to Edit
Edit
YouTube
Video
View Sheet Music
Sheet
Music
Print
Speed:
Play Intro (login for the full song)
Play
Intro
Sustain:
Download midi (intro) ...

1 Votes
5 star: 100%  (1)
4 star:  (0)
3 star:  (0)
2 star:  (0)
1 star:  (0)
0 star:  (0)
 Rate:
5 star
4 star
3 star
2 star
1 star
 

Comments (0)
 

No comments yet...

Comment on this tab   -   Unhelpful comments are exterminated.
  Your Guest Name:
      [Member Login]
  Comments:
 

Don't understand the tab?
See "How to Read Guitar Tabs".
Supported tags:
<i>italics</i>
<b>bold</b>
<u>underline</u>
<tab>tab lines</tab>
  Are you a spam robot?

If not, solve the equation:




[19 TabNabbers online]
©2021 TabNabber.com - Musician Supported Contact us Advertising Merchandise Privacy Policy Terms of Use facebook Twitter