TabNabber Tabs   Musician Supported
  Music Tabs
Espa˝ol English
Franšais Русский
Artist: # A B C D E F G H I J K L M N O P Q R S T U V W X Y Z
guitar

Guitar Tab, Chords

Featured! Featured! Featured!

(5 from 3 votes)
8,222 Views, Last Update 5 years ago
by: Jack
guest
[Guest]
e|3-0-5-0-7-0-5-7-10--8-0-7-0-3-5-3-0-5-0-7-0-3-7-5---8---10--5-8-|
B|--------------------------------------------------6---6---6-----|
G|----------------------------------------------------------------|
D|----------------------------------------------------------------|
A|----------------------------------------------------------------|
E|----------------------------------------------------------------|

e|10--8-0-5---7-0-10--8-0-12--7-0-
b|--6---6---6---6---6---6---6---6-
g|--------------------------------
d|--------------------------------
a|--------------------------------
e|--------------------------------

e|5-0-3-0-7-0-5-7-12--7-0-8-0-3-5-3-0-5-0-7-0-3---5---8---12--5---|
B|----------------------------------------------6---6---6---6---6-|
G|----------------------------------------------------------------|
D|----------------------------------------------------------------|
A|----------------------------------------------------------------|
E|----------------------------------------------------------------|

e|5-5-8-8-5-5-7-7-5-5-8-8-5-5-5-5-
b|-6-6-6-6-6-6-6-6-6-6-6-6-6--6-6-
g|----------------------------0-0-
d|--------------------------------
a|--------------------------------
e|--------------------------------

e|3-0-5-0-7-0-5-7-10--8-0-7-0-3-5-3-0-5-0-7-0-3-7-5---8---10--5-8-|
B|--------------------------------------------------6---6---6-----|
G|----------------------------------------------------------------|
D|----------------------------------------------------------------|
A|----------------------------------------------------------------|
E|----------------------------------------------------------------|


Login to Edit
Edit
YouTube
Video
View Sheet Music
Sheet
Music
Print
Speed:
Play Intro (login for the full song)
Play
Intro
Sustain:
Download midi (intro) ...

3 Votes
5 star: 100%  (3)
4 star:  (0)
3 star:  (0)
2 star:  (0)
1 star:  (0)
0 star:  (0)
 Rate:
5 star
4 star
3 star
2 star
1 star
 

Comments (2)
 

BA


Admin
[Admin]

5 months ago
should have featured this a while ago...

Reply
BA


Admin
[Admin]

5 years ago
Nice, another potential masterpiece!

Reply

Comment on this tab   -   Unhelpful comments are exterminated.
  Your Guest Name:
      [Member Login]
  Comments:
 

Don't understand the tab?
See "How to Read Guitar Tabs".
Supported tags:
<i>italics</i>
<b>bold</b>
<u>underline</u>
<tab>tab lines</tab>
  Are you a spam robot?

If not, solve the equation:




[17949 TabNabbers online]
©2021 TabNabber.com - Musician Supported Contact us Advertising Merchandise Privacy Policy Terms of Use facebook Twitter