TabNabber Tabs   Musician Supported
  Music Tabs
Espa˝ol English
Franšais Русский
Artist: # A B C D E F G H I J K L M N O P Q R S T U V W X Y Z
guitar

Guitar Tab, Chords



(0 from 0 votes)
5,440 Views, Last Update 6 years ago
by: Anonymous
guest
[Guest]
e|--------------------------------------­----------------------------------------­-----|
B|--------------------------------------­----------------------------------------­-----|
G|-5-5--9--7--9---------9--7--9--7-7--9-­-7--9--10-10-10-10-10--5-5-|
D|-5-5--------------5-5-------------7-7-­----------------------------------------­|
A|-3-3--7--5--7---5-5--7--5--7--5-5--7--­5--7---8--8---8---8---8--3-3--|
E|-------------------3-3----------------­----------------------------------------­---|

Verse: Palm Muted (Just listen to the Rhythm)
e|--------------------|
B|--------------------|
G|----------5---2---|
D|-3---5---5---2---|
A|-3---5---3---0---|
E|-1---3-------------|

e|-----------------------------------|
B|-----------------------------------|
G|----------------------------------|
D|3-3-3-3-3-3-5-5-5-5-5-5-5-|
A|3-3-3-3-3-3-5-5-5-5-5-5-5-|
E|1-1-1-1-1-1-3-3-3-3-3-3-3-|

e|--------------------------------------­------------------|
B|--------------------------------------­------------------|
G-9-9-9-9-9-9-9-9-10-10-10-10-10-10-10-1­0-|
D|-9-9-9-9-9-9-9-9-10-10-10-10-10-10-10-­10-|
A|-7-7-7-7-7-7-7-7--8---8--8---8--8---8-­--8---8-|
E|--------------------------------------­-------------------|

(listen to rhythm)
e|----------------------------------|
B|----------------------------------|
G|--------5--4--2--------------5\-|
D|-3--5--5--4--2--5--3--5---5\-|
A|-3--5--3--2--0--5--3--5---3\-|
E|-1--3-------------3--1--3------|

Repeat Intro Twice
Solo:
e|------|
B|-13-| about 14x
G|-----|

e|-15b17-15-17-15-14--14-12----12-------­-------------15-17-20b22-|
B|------------------------------------15­---15-13~--15--17-------------------|
G|--------------------------------------­----------------------------------------­---|

Repeat Intro once then

e|--------------------------------------­------------|
B|--------------------------------------­------------|
G|-5-5--9-7-9-10-10-10-10-10--5-5-5~~-|
D|-5-5----------------------------------­----5~~-|
A|-3-3--7-5-7--8---8--8---8---8--3-3-3~~­--|
E|--------------------------------------­------------|


Login to Edit
Edit
YouTube
Video
View Sheet Music
Sheet
Music
Print
Speed:
Play Intro (login for the full song)
Play
Intro
Sustain:
Download midi (intro) ...

 Rate:
5 star
4 star
3 star
2 star
1 star
 

Comments (0)
 

No comments yet...

Comment on this tab   -   Unhelpful comments are exterminated.
  Your Guest Name:
      [Member Login]
  Comments:
 

Don't understand the tab?
See "How to Read Guitar Tabs".
Supported tags:
<i>italics</i>
<b>bold</b>
<u>underline</u>
<tab>tab lines</tab>
  Are you a spam robot?

If not, solve the equation:




[473 TabNabbers online]
©2020 TabNabber.com - Musician Supported Contact us Advertising Merchandise Privacy Policy Terms of Use facebook Twitter