TabNabber Tabs   Musician Supported
  Music Tabs
Espa˝ol English
Franšais Русский
Artist: # A B C D E F G H I J K L M N O P Q R S T U V W X Y Z
bass

Bass Guitar Tab, Chords

Featured! Featured! Featured!

(5 from 2 votes)
8,936 Views, Last Update 6 years ago
by: T Funk
guest
[Guest]
g|-------------------------------------------------------------------------------------------------|
d|----10------------10------10--------13--------------13---------------8-------------8----8-8-8-8--|
a|-------------------------------------------------------------------------------------------------|
e|8-------8-8---8-------8---------11------11------11------11-------6-------6-6---6-------6-6-6-6-6-|
 {                               }{                               }{                               }
g|-------------------------------------------------------------------------------------------------|
d|--------10101010----------10-----13-13---13------13-13---------------8-------------8----8-8-8-8--|
a|-------------------------------------------------------------------------------------------------|
e|8-8-8-8---------8-8-8-8---------11------11------11------11-------6-------6-6---6-------6-6-6-6-6-|
 {                               }{                               }{                               }
g|-------------------------------------------------------------------------------------------------|
d|--------10101010--------10101010-13-13---13------13-13---------------8----------88888-8-8-8-8-8--|
a|-------------------------------------------------------------------------------------------------|
e|88888888--------88888888--------11------11------11------11-------6-------6-66666-----6-6-6-6-6-6-|


Login to Edit
Edit
YouTube
Video
View Sheet Music
Sheet
Music
Print
Speed:
Play Intro (login for the full song)
Play
Intro
Sustain:
Download midi (intro) ...

2 Votes
5 star: 100%  (2)
4 star:  (0)
3 star:  (0)
2 star:  (0)
1 star:  (0)
0 star:  (0)
 Rate:
5 star
4 star
3 star
2 star
1 star
 

Comments (0)
 

No comments yet...

Comment on this tab   -   Unhelpful comments are exterminated.
  Your Guest Name:
      [Member Login]
  Comments:
 

Don't understand the tab?
See "How to Read Guitar Tabs".
Supported tags:
<i>italics</i>
<b>bold</b>
<u>underline</u>
<tab>tab lines</tab>
  Are you a spam robot?

If not, solve the equation:




[98 TabNabbers online]
©2020 TabNabber.com - Musician Supported Contact us Advertising Merchandise Privacy Policy Terms of Use facebook Twitter