TabNabber Tabs   Musician Supported
  Music Tabs
Espa˝ol English
Franšais Русский
Artist: # A B C D E F G H I J K L M N O P Q R S T U V W X Y Z
guitar

Guitar Tab, Chords



(0 from 0 votes)
3,690 Views, Last Update 5 years ago
by: Anonymous
guest
[Guest]
E|--------1p0--------------------------------------------------|
B|--------3-------------1-----------------------------------1--|
G|-----2-------------------0h2--2--2--0----------0-------0-----|
D|--0----------0-----2-----3-------------0h2--2----------------|
A|----------------0----------------------3----------0h2--------|
E|-------------------------------------------------------------|





E|--------1p0--------------------------------|
B|--------3-------------1--------1--------1--|
G|-----2-------------------2-----------0-----|
D|--0----------0-----2-----3--3-----3--------|
A|----------------0-----------------------3--|
E|-------------------------------------------|


Login to Edit
Edit
YouTube
Video
View Sheet Music
Sheet
Music
Print
Speed:
Play Intro (login for the full song)
Play
Intro
Sustain:
Download midi (intro) ...

 Rate:
5 star
4 star
3 star
2 star
1 star
 

Comments (0)
 

No comments yet...

Comment on this tab   -   Unhelpful comments are exterminated.
  Your Guest Name:
      [Member Login]
  Comments:
 

Don't understand the tab?
See "How to Read Guitar Tabs".
Supported tags:
<i>italics</i>
<b>bold</b>
<u>underline</u>
<tab>tab lines</tab>
  Are you a spam robot?

If not, solve the equation:




[355 TabNabbers online]
©2020 TabNabber.com - Musician Supported Contact us Advertising Merchandise Privacy Policy Terms of Use facebook Twitter