TabNabber Tabs   Musician Supported
  Music Tabs
Espa˝ol English
Franšais Русский
Artist: # A B C D E F G H I J K L M N O P Q R S T U V W X Y Z
guitar

Guitar Tab, Chords



(0 from 0 votes)
4,592 Views, Last Update 5 years ago
by: Phillip
guest
[Guest]
Part A

 E ---------------|---------------
 B -/9-57-59-5--7-|-7-45-47-5--4--
 G ---------------|---------------  x2
 D ---------------|---------------
 A ---------------|---------------
 E ---------------|---------------

Part B

 E -------------|---------------|--------------|--------------
 B -9-57-59-5-7-|-7-45-47-5-4---|9-57-512-10-9-|7-45-47-5-4---
 G -------------|---------------|--------------|--------------
 D -------------|---------------|--------------|--------------
 A -------------|---------------|--------------|--------------
 E -------------|---------------|--------------|--------------

Part C (Chorus)

 E ------------------------------------------------------
 B -/12--9-7-9---/12--9--7--9---/12--9-7-9---\5--9--7--9-
 G ------------------------------------------------------
 D ------------------------------------------------------ x2
 A ------------------------------------------------------
 E ------------------------------------------------------

Part D

 E -------------|-------------|-------------|-------------|
 B -13-15-12-13-|-17-15-------|-13-15-12-13-|-17-15-------|
 G -------------|-------17-16-|-------------|-------17-16-|
 D -------------|-------------|-------------|-------------|
 A -------------|-------------|-------------|-------------|
 E -------------|-------------|-------------|-------------|

 E -----------------------|-------------|-------------|--------------
 B -17--13-15-12----15-12-|-17-15-------|-13-15-12-13-|-17-15--------
 G ---------------14------|-------17-16-|-------------|-------17-16~-
 D ---14--------14--------|-------------|-------------|--------------
 A -----------------------|-------------|-------------|--------------
 E -----------------------|-------------|-------------|----------------------------------|


Login to Edit
Edit
YouTube
Video
View Sheet Music
Sheet
Music
Print
Speed:
Play Intro (login for the full song)
Play
Intro
Sustain:
Download midi (intro) ...

 Rate:
5 star
4 star
3 star
2 star
1 star
 

Comments (0)
 

No comments yet...

Comment on this tab   -   Unhelpful comments are exterminated.
  Your Guest Name:
      [Member Login]
  Comments:
 

Don't understand the tab?
See "How to Read Guitar Tabs".
Supported tags:
<i>italics</i>
<b>bold</b>
<u>underline</u>
<tab>tab lines</tab>
  Are you a spam robot?

If not, solve the equation:




[414 TabNabbers online]
©2020 TabNabber.com - Musician Supported Contact us Advertising Merchandise Privacy Policy Terms of Use facebook Twitter