TabNabber Tabs   Musician Supported
  Music Tabs
Espa˝ol English
Franšais Русский
guitar

Guitar Tab, Chords



(5 from 1 votes)
5,230 Views, Last Update 15 minutes ago updated
by: Gman
guest
[Guest]
e|0.--0--0-----|0.----------|0.--0--------|0.--0-------|0---0--------0-|-------------------|---------------------|-------------------|--------------|-------------------|---------------------|-------------------|
B|0.---0--0----|0.------0---|1.----1------|0.----0-----|0-----0------0-|0-----0------------|0-----0--------------|0--------1--0------|------0-----0-|1-0----------------|---------------------|----------0--------|
G|0.-----------|2.--2-------|2.------2----|2.------2---|0-------0----0-|0--2--0--2----0-2--|0--2--0-----2----0-2-|0--2--0-------0----|----0---------|2---2---2----0--2--|0-----0----4--3--0---|---2----2----------|
D|2.-----------|1.----------|2.--------2--|1.--------1-|2---------2--2-|------------1------|---------2-----1-----|---------2------2--|--2-----------|------2----1-------|---2--2------------4-|2--1--1------------|
A|2.-----------|2.----------|0.-----------|2.----------|2------------2-|---------2---------|------------2--------|---------3---------|3--------3----|0-------2----------|2-----2-------4--3---|---2---------------|
E|0.-----------|0.----------|-------------|------------|0------------0-|0-----0------------|0-----0--------------|0------------------|--------------|-------------------|---------------------|-------------------|

e|-----------------------|-----------------------|-----------------------|
B|---3-----------3-------|---3-----------3-------|---3------------3------|
G|---0-----0-----0-----0-|---0-----0-----0-----0-|---0-----0------0----0-|
D|------2-----------2----|------0-----------0----|------2-----------2----|
A|3-----------3----------|2-----------2----------|-----------------------|
E|-----------------------|-----------------------|0-----------0----------|

e|-----------------------|
B|3--3-----3-----3-----3-|
G|2--4-----2-----0-----0-|
D|------0-----0-----0----|
A|-----------------------|
E|-----------------------|


Login to Edit
Edit
YouTube
Video
View Sheet Music
Sheet
Music
Print
Speed:
Play Intro (login for the full song)
Play
Intro
Sustain:
Download midi (intro) ...

1 Votes
5 star: 100%  (1)
4 star:  (0)
3 star:  (0)
2 star:  (0)
1 star:  (0)
0 star:  (0)
 Rate:
5 star
4 star
3 star
2 star
1 star
 

Comments (0)
 

No comments yet...

Comment on this tab   -   Unhelpful comments are exterminated.
  Your Guest Name:
      [Member Login]
  Comments:
 

Don't understand the tab?
See "How to Read Guitar Tabs".
Supported tags:
<i>italics</i>
<b>bold</b>
<u>underline</u>
<tab>tab lines</tab>
  Are you a spam robot?

If not, solve the equation:




[27018 TabNabbers online]


©2022 TabNabber.com - Musician Supported Contact us Advertising Merchandise Privacy Policy Terms of Use facebook Twitter