TabNabber Tabs   Musician Supported
  Music Tabs
Espa˝ol English
Franšais Русский
Artist: # A B C D E F G H I J K L M N O P Q R S T U V W X Y Z
guitar

Guitar Tab, Chords



(0 from 0 votes)
3,014 Views, Last Update 4 years ago
by: Anonymous
guest
[Guest]
e|-----------------|
B|-----------------|
G|-----------------|
D|-----------------|
A|---12~-----14~---|
E|-------12~-------|
 
e|-----------------|
B|-----------------|
G|-----------------|
D|-----------------|
A|---12~-----14~---|
E|-------12~-------|


e|-----------------|
B|-----------------|
G|-----------------|
D|-----------------|
A|-0-0-0-0-0-0-0-0-|
E|-----------------| 

e|-----------------|
B|-----------------|
G|-----------------|
D|-----------------|
A|-0-0-0-0-0-0-0-0-|
E|-----------------| 

e|-----------------|
B|-----------------|
G|-----------------|
D|-----------------|
A|-0-0-0-0-0-0-0-0-|
E|-----------------| 

e|-----------------|
B|-----------------|
G|-----------------|
D|-----------------|
A|-0-0-0-0-0-0-0-0-|
E|-----------------| 

e|-----------------------------------|
B|-----------------------------------|
G|-----------------------------------|
D|-----------------------------------|
A|-4-4-444-444-4420----------------7-|
E|------------------0-0-000-000-047--|

e|-----------------------------------|
B|-----------------------------------|
G|-----------------------------------|
D|-----------------------------------|
A|-4-4-444-444-4420----------------7-|
E|------------------0-0-000-000-047--|

e|-----------------------------------|
B|-----------------------------------|
G|-----------------------------------|
D|-----------------------------------|
A|-4-4-444-444-4420----------------7-|
E|------------------0-0-000-000-047--|

e|-----------------------------------|
B|-----------------------------------|
G|-----------------------------------|
D|-----------------------------------|
A|-4-4-444-444-4420----------------7-|
E|------------------0-0-000-000-047--|


e|-----------------|
B|-----------------|
G|-----------------|
D|-----------------|
A|-2-2-2-2-2-2-2-2-|
E|-----------------|

e|-----------------|
B|-----------------|
G|-----------------|
D|-----------------|
A|-2-2-2-2-2-2-2-2-|
E|-----------------|

e|-----------------|
B|-----------------|
G|-----------------|
D|-----------------|
A|-2-2-2-2-2-2-2-2-|
E|-----------------|

e|-----------------|
B|-----------------|
G|-----------------|
D|-----------------|
A|-2-2-2-2-2-2-2-2-|
E|-----------------|

e|-----------------------------------|
B|-----------------------------------|
G|-----------------------------------|
D|-----------------------------------|
A|-00-040-0-0-0040---------2-2-2242--|
E|-----------------0-0-024-----------|

e|-----------------------------------|
B|-----------------------------------|
G|-----------------------------------|
D|-----------------------------------|
A|-00-040-0-0-2420----------2-2-2222-|
E|----------------4-0-0-024----------|

e|-----------------|
B|-----------------|
G|-----------------|
D|-----------------|
A|-0-0-0-0-0-0-0-0-|
E|-----------------|

e|-----------------|
B|-----------------|
G|-----------------|
D|-----------------|
A|-0-0-0-0-0-0-0-0-|
E|-----------------|

e|-----------------|
B|-----------------|
G|-----------------|
D|-----------------|
A|-0-0-0-0-0-0-0-0-|
E|-----------------|

e|-----------------|
B|-----------------|
G|-----------------|
D|-----------------|
A|-0-0-0-0-0-0-0-0-|
E|-----------------|

e|-----------------|
B|-----------------|
G|-----------------|
D|-7-7-7-7-7-7-7-7-|
A|-----------------|
E|-----------------|


e|--------------------------------------------------------------|
B|--------------------------------------------------------------|
G|--------------------------------------------------------------|
D|------------2-1------------2-1-------------2-1----------------|
A|--------0204---44-444-4424-----22-222-0202-----00-000-000-0---|
E|-00-000-----------------------------------------------------4-| 

e|--------------------------------------------------------------|
B|--------------------------------------------------------------|
G|--------------------------------------------------------------|
D|------------2-1------------2-1-------------2-1----------------|
A|--------0204---44-444-4424-----22-222-0202-----00-000-000-0---|
E|-00-000-------------------------------------------------------|


e|-----------------------------------|
B|-----------------------------------|
G|-----------------------------------|
D|-----------------------------------|
A|-4-4-444-444-4420----------------7-|
E|------------------0-0-000-000-047--|

e|-----------------------------------|
B|-----------------------------------|
G|-----------------------------------|
D|-----------------------------------|
A|-4-4-444-444-4420----------------7-|
E|------------------0-0-000-000-047--|


e|-----------------|
B|-----------------|
G|-----------------|
D|-----------------|
A|-2-2-2-2-2-2-2-2-|
E|-----------------| 


e|-----------------|
B|-----------------|
G|-----------------|
D|-----------------|
A|-2-2-2-2-2-2-2-2-|
E|-----------------|


e|-----------------|
B|-----------------|
G|-----------------|
D|-----------------|
A|-2-2-2-2-2-2-2-2-|
E|-----------------|


e|-----------------|
B|-----------------|
G|-----------------|
D|-----------------|
A|-2-2-2-2-2-2-2-2-|
E|-----------------|


e|-----------------------------------|
B|-----------------------------------|
G|-----------------------------------|
D|-----------------------------------|
A|-00-040-0-0-0040---------2-2-2242--|
E|-----------------0-0-024-----------|

e|-----------------------------------|
B|-----------------------------------|
G|-----------------------------------|
D|-----------------------------------|
A|-00-040-0-0-2420----------2-2-2222-|
E|----------------4-0-0-024----------|

e|-----------------|
B|-----------------|
G|-----------------|
D|-----------------|
A|-0-0-0-0-0-0-0-0-|
E|-----------------| 

e|-----------------|
B|-----------------|
G|-----------------|
D|-----------------|
A|-0-0-0-0-0-0-0-0-|
E|-----------------|

e|-----------------|
B|-----------------|
G|-----------------|
D|-----------------|
A|-0-0-0-0-0-0-0-0-|
E|-----------------|

e|-----------------|
B|-----------------|
G|-----------------|
D|-7-7-7-7-7-7-7-7-|
A|-----------------|
E|-----------------|

e|--------------------------------------------------------------|
B|--------------------------------------------------------------|
G|--------------------------------------------------------------|
D|------------2-1------------2-1-------------2-1----------------|
A|--------0204---44-444-4424-----22-222-0202-----00-000-000-0---|
E|-00-000-----------------------------------------------------4-| 

e|--------------------------------------------------------------|
B|--------------------------------------------------------------|
G|--------------------------------------------------------------|
D|------------2-1------------2-1-------------2-1----------------|
A|--------0204---44-444-4424-----22-222-0202-----00-000-000-0---|
E|-00-000-----------------------------------------------------4-|

e|--------------------------------------------------------------|
B|--------------------------------------------------------------|
G|--------------------------------------------------------------|
D|-----------2-1------------2-1------------2-1------------------|
A|-------0204----55-555-0204----44-444-4424----0000000000000000-|
E|00-000--------------------------------------------------------| 

e|--------------------------------------------------------------|
B|--------------------------------------------------------------|
G|--------------------------------------------------------------|
D|-----------2-1------------2-1------------2-1------------------|
A|-------0204----55-555-0204----44-444-4424----0000000000000000-|
E|00-000--------------------------------------------------------|

e|---------------------------------|
B|---------------------------------|
G|---------------------------------|
D|---------------------------------|
A|---------------------------------|
E|-0-00-0-0-00000-0-00-0-0-00000-0-|


Login to Edit
Edit
YouTube
Video
View Sheet Music
Sheet
Music
Print
Speed:
Play Intro (login for the full song)
Play
Intro
Sustain:
Download midi (intro) ...

 Rate:
5 star
4 star
3 star
2 star
1 star
 

Comments (0)
 

No comments yet...

Comment on this tab   -   Unhelpful comments are exterminated.
  Your Guest Name:
      [Member Login]
  Comments:
 

Don't understand the tab?
See "How to Read Guitar Tabs".
Supported tags:
<i>italics</i>
<b>bold</b>
<u>underline</u>
<tab>tab lines</tab>
  Are you a spam robot?

If not, solve the equation:




[914 TabNabbers online]
©2020 TabNabber.com - Musician Supported Contact us Advertising Merchandise Privacy Policy Terms of Use facebook Twitter