TabNabber Tabs   Musician Supported
  Music Tabs
Espa˝ol English
Franšais Русский
Artist: # A B C D E F G H I J K L M N O P Q R S T U V W X Y Z
guitar

Guitar Tab, Chords



(0 from 0 votes)
3,759 Views, Last Update 2 months ago
by: Gman
guest
[Guest]
E| -------0-----------0-----0-----------0-------------0-----0---------
B| -----7---7-------7---7-----6-------6---6-------6-----1-----1-------
G| ---7-------7---7-------7-----7---7-------7---7---------2-----2-----
D| -9-----------9-----------------8-----------8-----3-------------3---
A| -------------------------------------------------------------------
E -------------------------------------------------------------------

e|-------------------------------------------------------------------|
b|-------0---------------0----------------0---------------0----------|
g|-----0---0-----------0---0------------5---5-----------5---5--------|
d|---4-------4---4---4-------4---4----5-------5---5---5-------5---5--|
a|-2-----------2---2-----------2-------------------------------------|
e|----------------------------------5-----------5---5-----------5----|


Login to Edit
Edit
YouTube
Video
View Sheet Music
Sheet
Music
Print
Speed:
Play Intro (login for the full song)
Play
Intro
Sustain:
Download midi (intro) ...

 Rate:
5 star
4 star
3 star
2 star
1 star
 

Comments (0)
 

No comments yet...

Comment on this tab   -   Unhelpful comments are exterminated.
  Your Guest Name:
      [Member Login]
  Comments:
 

Don't understand the tab?
See "How to Read Guitar Tabs".
Supported tags:
<i>italics</i>
<b>bold</b>
<u>underline</u>
<tab>tab lines</tab>
  Are you a spam robot?

If not, solve the equation:




[311 TabNabbers online]
©2021 TabNabber.com - Musician Supported Contact us Advertising Merchandise Privacy Policy Terms of Use facebook Twitter