TabNabber Tabs   Musician Supported
  Music Tabs
Espa˝ol English
Franšais Русский
Artist: # A B C D E F G H I J K L M N O P Q R S T U V W X Y Z
guitar

Guitar Tab, Chords


2 / 123


(0 from 0 votes)
2,472 Views, Last Update 2 years ago
by: 1
guest
[Guest]
E|--------------------------------------|
B|--------------------------------------|
G|--------------------------------------|
D|--7-----------5-----------------------|
A|-----5--5--5-----5--5--5--8--7--5--3--|
E|--------------------------------------|(x13)


E|--------------------|
B|--------------------|
G|--------------------|
D|--7--3--5--3--2--0--|
A|--------------------|
E|--------------------|



E|---------------------|
B|---------------------|
G|---------------------|
D|--0--7--10--9--5--7--|
A|---------------------|


E|--------------------------|
B|--------------------------|
G|--7--10--10--9--10--9--7--|
D|--------------------------|
A|--------------------------|
E|--------------------------|



E|-------------------------|
B|-------------------------|
G|--7--10--14--12--12--14--|
D|-------------------------|
A|-------------------------|
E|-------------------------|



E|-----------------------|
B|-----------------------|
G|--10--7--10--9--10--7--|
D|-----------------------|
A|-----------------------|
E|-----------------------| (x2)



E|---------------------------|
B|---------------------------|
G|--10--7--10--9--10--7--14--|
D|---------------------------|
A|---------------------------|
E|---------------------------|


Login to Edit
Edit
YouTube
Video
View Sheet Music
Sheet
Music
Print
Speed:
Play Intro (login for the full song)
Play
Intro
Sustain:
Download midi (intro) ...

 Rate:
5 star
4 star
3 star
2 star
1 star
 

Comments (0)
 

No comments yet...

Comment on this tab   -   Unhelpful comments are exterminated.
  Your Guest Name:
      [Member Login]
  Comments:
 

Don't understand the tab?
See "How to Read Guitar Tabs".
Supported tags:
<i>italics</i>
<b>bold</b>
<u>underline</u>
<tab>tab lines</tab>
  Are you a spam robot?

If not, solve the equation:




[794 TabNabbers online]
©2020 TabNabber.com - Musician Supported Contact us Advertising Merchandise Privacy Policy Terms of Use facebook Twitter