TabNabber Tabs   Musician Supported
  Music Tabs
Espa˝ol English
Franšais Русский
Artist: # A B C D E F G H I J K L M N O P Q R S T U V W X Y Z
guitar

Guitar Tab, Chords



(0 from 0 votes)
4,433 Views, Last Update 1 year ago
by: Bill Maher
guest
[Guest]
G#   B             A
e--11--11--|----------11--12-11-----|
b--9---12--|------12--12--------12--|
c------13--|--13--13----------------|

Guitarra
   G#               B          A          Bcej7 
e--4-------4--|-3----------|-5-------5--|-7-------7--|
b--4--4----4--|-5--5----5--|-5--5----5--|-7--7----7--|
g--4--4-4--4--|-5--5-5--5--|-6--6-6--6--|-8--8-8--8--|
D--6--6-6-----|-5--5-5-----|-7--7-7-----|-9--9-9-----|
A--6----------|-3----------|-7----------|-9----------|
E--4----------|------------|-5----------|-7----------|


Login to Edit
Edit
YouTube
Video
View Sheet Music
Sheet
Music
Print
Speed:
Play Intro (login for the full song)
Play
Intro
Sustain:
Download midi (intro) ...

 Rate:
5 star
4 star
3 star
2 star
1 star
 

Comments (0)
 

No comments yet...

Comment on this tab   -   Unhelpful comments are exterminated.
  Your Guest Name:
      [Member Login]
  Comments:
 

Don't understand the tab?
See "How to Read Guitar Tabs".
Supported tags:
<i>italics</i>
<b>bold</b>
<u>underline</u>
<tab>tab lines</tab>
  Are you a spam robot?

If not, solve the equation:




[251 TabNabbers online]
©2020 TabNabber.com - Musician Supported Contact us Advertising Merchandise Privacy Policy Terms of Use facebook Twitter