TabNabber Tabs   Musician Supported
  Music Tabs
Espa˝ol English
Franšais Русский
Artist: # A B C D E F G H I J K L M N O P Q R S T U V W X Y Z
guitar

Guitar Tab, Chords

Featured! Featured! Featured!

(0 from 0 votes)
3,849 Views, Last Update 2 years ago
by: asda
guest

New Tabber
[New Recruit]
E||--------------------------------|--------------------------------|
B||--------3---------------3-------|--------3---------------3-------|
G||-----0-------0-------0-------0--|-----0-------0-------0-------0--|
D||----------------4---------------|2---------------0---------------|
A||--------------------------------|--------------------------------|
E||3-------------------------------|--------------------------------|


e|-------------3------------------|3-------------------------------|
b|--------3------------3----------|3-------------------------------|
g|-----0------------------0-------|0-------------------------------|
d|--------------------------------|2-------------------------------|
a|3-------------------------------|3-------------------------------|
e|--------------------------------|--------------------------------|



e|--------------------------------|--------------------------------|
b|--------3---------------3-------|--------3---------------3-------|
g|-----0-------0-------0-------0--|-----0-------0-------0-------0--|
d|----------------4---------------|2---------------0---------------|
a|--------------------------------|--------------------------------|
e|3-------------------------------|--------------------------------|


e|-------------3------------------|-------------3------------------|
b|--------3------------3----------|--------3------------3----------|
g|-----0------------------0-------|-----0------------------0-------|
d|--------------------------------|--------------------------------|
a|3-------------------------------|3-------------------------------|
e|--------------------------------|--------------------------------|


e|--------------------------------|-------------0------------------|
b|-------------3------------------|---------------------0----------|
g|--------0------------0----------|--------0---------------0-------|
d|-----4------------------4---/2--|-----2--------------------------|
a|5-------------------------------|--------------------------------|
e|--------------------------------|0-------------------------------|


e|-------------3------------------|--------------------------------|
b|--------3------------3----------|-------------3------------------|
g|-----0------------------0-------|--------0------------0----------|
d|--------------------------------|-----4------------------4-------|
a|3-------------------------------|3/5-----------------------------|
e|--------------------------------|--------------------------------|



e|--------------------------------|--------------------------------|
b|--------3---------------3-------|--------3---------------3-------|
g|-----0-------0-------0-------0--|-----0-------0-------0-------0--|
d|----------------4---------------|2---------------0---------------|
a|--------------------------------|--------------------------------|
e|3-------------------------------|--------------------------------|


e|-------------3------------------|-------------3------------------|
b|--------3------------3----------|--------3------------3----------|
g|-----0------------------0-------|-----0------------------0-------|
d|--------------------------------|--------------------------------|
a|3-------------------------------|3-------------------------------|
e|--------------------------------|--------------------------------|


e|--------------------------------|-------------0------------------|
b|-------------3------------------|---------------------0----------|
g|--------0------------0----------|--------0---------------0-------|
d|-----4------------------4---/2--|-----2--------------------------|
a|5-------------------------------|--------------------------------|
e|--------------------------------|0-------------------------------|


e|--------------------------------|-------------3------------------|
b|--------3---------------3-------|--------3------------3----------|
g|-----0-------0-------2-------2--|-----0------------------0-------|
d|----------------0---------------|--------------------------------|
a|3-------------------------------|--------------------------------|
e|--------------------------------|3-------------------------------|


e|-------------3------------------|-------------3------------------|
b|--------3------------3----------|--------3------------3----------|
g|-----0------------------0-------|-----0------------------0-------|
d|--------------------------------|--------------------------------|
a|3-------------------------------|3-------------------------------|
e|--------------------------------|--------------------------------|


e|---------------------5----------|--------------------------------|
b|-------------3----------3-------|-------------3------------------|
g|--------0--------------------0--|--------0------------0----------|
d|-----4--------------------------|-----4------------------4-------|
a|5-------------------------------|5-------------------------------|
e|--------------------------------|--------------------------------|


e|-------------3------------------|-------------3------------------|
b|--------3------------3----------|--------3------------3----------|
g|-----0------------------0-------|-----0------------------0-------|
d|--------------------------------|--------------------------------|
a|3-------------------------------|3-------------------------------|
e|--------------------------------|--------------------------------|


e|--------------------------------|2-------------------------------|
b|---------------------3----------|3-------------------------------|
g|--------2---------------2-------|2-------------------------------|
d|-----4-------4---------------4--|--------------------------------|
a|5-------------------------------|5-------------------------------|
e|--------------------------------|--------------------------------|



e|--------------------------------|--------------------------------|
b|--------3---------------3-------|--------3---------------3-------|
g|-----0-------0-------0-------0--|-----0-------0-------0-------0--|
d|----------------4---------------|2---------------0---------------|
a|--------------------------------|--------------------------------|
e|3-------------------------------|--------------------------------|


e|-------------3------------------|-------------3------------------|
b|--------3------------3----------|--------3------------3----------|
g|-----0------------------0-------|-----0------------------0-------|
d|--------------------------------|--------------------------------|
a|3-------------------------------|3-------------------------------|
e|--------------------------------|--------------------------------|


e|--------------------------------|-------------0------------------|
b|-------------3------------------|---------------------0----------|
g|--------0------------0----------|--------0---------------0-------|
d|-----4------------------4---/2--|-----2--------------------------|
a|5-------------------------------|--------------------------------|
e|--------------------------------|0-------------------------------|


e|--------------------------------|-------------3------------------|
b|--------3---------------3-------|--------3------------3----------|
g|-----0-------0-------2-------2--|-----0------------------0-------|
d|----------------0---------------|--------------------------------|
a|3-------------------------------|--------------------------------|
e|--------------------------------|3-------------------------------|


e|-------------3------------------|-------------3------------------|
b|--------3------------3----------|--------3------------3----------|
g|-----0------------------0-------|-----0------------------0-------|
d|--------------------------------|0-------------------------------|
a|3-------------------------------|--------------------------------|
e|--------------------------------|--------------------------------|


e|-------------3------------------|-------------2------------------|
b|--------3------------3----------|--------3------------3----------|
g|-----0------------------0-------|-----0------------------0-------|
d|--------------------------------|--------------------------------|
a|--------------------------------|--------------------------------|
e|3-------------------------------|3-------------------------------|


e|-------------0------------------|3-------------------------------|
b|--------3------------3----------|3-------------------------------|
g|-----0------------------0-------|0-------------------------------|
d|-----------------------------0--|0-------------------------------|
a|--------------------------------|2-------------------------------|
e|3-------------------------------|3-------------------------------|


Login to Edit
Edit
YouTube
Video
View Sheet Music
Sheet
Music
Print
Speed:
Play Intro (login for the full song)
Play
Intro
Sustain:
Download midi (intro) ...

 Rate:
5 star
4 star
3 star
2 star
1 star
 

Comments (0)
 

No comments yet...

Comment on this tab   -   Unhelpful comments are exterminated.
  Your Guest Name:
      [Member Login]
  Comments:
 

Don't understand the tab?
See "How to Read Guitar Tabs".
Supported tags:
<i>italics</i>
<b>bold</b>
<u>underline</u>
<tab>tab lines</tab>
  Are you a spam robot?

If not, solve the equation:




[127 TabNabbers online]
©2020 TabNabber.com - Musician Supported Contact us Advertising Merchandise Privacy Policy Terms of Use facebook Twitter