TabNabber Tabs   Musician Supported
  Music Tabs
Espa˝ol English
Franšais Русский
Artist: # A B C D E F G H I J K L M N O P Q R S T U V W X Y Z
guitar

Guitar Tab, Chords



(0 from 0 votes)
4,666 Views, Last Update 2 years ago
by: atownes


Tab Master
[Tab Master]
Title: Kill the virgin
Artist: SCANDAL
Album: 
Author: Hajimetal, Junnnnn Sato

Track 1: Vocals.

E|--------|---------------------------|--------|--------|--------|---------------------------|
B|--------|---------------------------|--------|--------|--------|---------------------------|
G|--------|-0---0---0-----------------|--------|--------|--------|-0---0---0-----------------|
D|--------|-0---0---2---4---4---0-----|-0------|--------|--------|-0---0---2---0---0---0-----|
A|--------|-------------5---5---2-----|-2------|--------|--------|-------------9---9---2-----|
E|--------|---------------------------|--------|--------|--------|---------------------------|


E|--------|--------|-----------------------|---------------------------|--------------------|
B|--------|--------|-----------------------|---------------------------|--------------------|
G|--------|--------|-----------------------|-0-------------------------|----------------2---|
D|-0------|--------|-----------0---0---0---|------0---0---0---0---2----|--------------------|
A|-2------|--------|-----------------------|---------------------------|--------------------|
E|--------|--------|-----------------------|---------------------------|--------------------|



E|------------------------------|-----------------|---------------------------------|
B|-----0---0---0---0------------|-----------------|---------------------------------|
G|-4-------------------2----2---|-2---0-----------|-0---0---------------0---0-------|
D|------------------------------|-----------------|---------0---0---0-----------0---|
A|------------------------------|-----------------|---------------------------------|
E|------------------------------|-----------------|---------------------------------|


E|------------------------|------------------------------|---------------------------|
B|------------------------|-----1---0---1---0------------|---------------------------|
G|--------------------2---|-4--------------------2---0---|-0-------------------------|
D|-0---2------------------|------------------------------|---------------0---0---0---|
A|------------------------|------------------------------|---------------------------|
E|------------------------|------------------------------|---------------------------|


E|------------------------|---------------------------------|------------------------------|
B|------------------------|-----0---0---0---0---------------|-0----0---0---0---0-------0---|
G|-0----------------------|---------------------2---0---2---|------------------------------|
D|-----0----2---2---------|---------------------------------|------------------------------|
A|------------------------|---------------------------------|------------------------------|
E|------------------------|---------------------------------|------------------------------|


E|------------------------|------------------------------|------------------------|
B|------------------------|------------------------------|--------------------0---|
G|-0---0------------------|-0---0----------------0-------|------------------------|
D|--------------------0---|---------0---0---0--------0---|-0---2------------------|
A|------------------------|------------------------------|------------------------|
E|------------------------|------------------------------|------------------------|


E|---------------------------------|-------------|-------------------------------------|
B|---------------------------------|-------------|-------------------------------------|
G|-2---2-------2---2-------2---2---|-4-----------|-0---0---0---0---0---0--0--0--0------|
D|---------------------4-----------|-------------|-------------------------------------|
A|---------------------------------|-------------|-------------------------------------|
E|---------------------------------|-------------|-------------------------------------|


E|-------------------------------------|-------------------------------------|-------------------------------------|
B|-------------------------------------|-------------------------------------|-------------------------------------|
G|-0---0---0---0---0---0--0--0--0------|-0---0---0---0---0---0--0--0--0------|-0---0---0---0---0---0--0--0--0------|
D|-------------------------------------|-------------------------------------|-------------------------------------|
A|-------------------------------------|-------------------------------------|-------------------------------------|
E|-------------------------------------|-------------------------------------|-------------------------------------|


E|-------------------------------------|-------------------------------------|-------------------------------------|
B|-------------------------------------|-------------------------------------|-------------------------------------|
G|-0---0---0---0---0---0--0--0--0------|-0---0---0---0---0---0--0--0--0------|-0---0---0---0---0---0--0--0--0------|
D|-------------------------------------|-------------------------------------|-------------------------------------|
A|-------------------------------------|-------------------------------------|-------------------------------------|
E|-------------------------------------|-------------------------------------|-------------------------------------|


E|--------|---------------------------------|-----2---2---2---2---------|---------------------------------|
B|--------|-3---3---0---0---0---0---0---0---|-0---3---3---3---3---------|-0---0---------------------------|
G|--------|-4---4---0---0---0---0---0---0---|-0-------------------------|---------0---0---0---0---0---0---|
D|--------|---------------------------------|---------------------------|---------------------------------|
A|--------|---------------------------------|---------------------------|---------------------------------|
E|--------|---------------------------------|---------------------------|---------------------------------|


E|------------------------------|------------------------|------------------------------|
B|-------------3---3------------|------------------------|-3----------------------------|
G|------------------------------|---------------0----0---|-----0---0--------0---2---0---|
D|-4---4---4-----------4----4---|-5----------------------|------------------------------|
A|------------------------------|------------------------|------------------------------|
E|------------------------------|------------------------|------------------------------|


E|---------------------------|---------------------------|---------------------------------|
B|-3-------------------------|---------------------------|-0---0---0---0---0---0---0---0---|
G|-----0------------0--------|---------------0---0---2---|---------------------------------|
D|----------4---4--------2---|-2-------------------------|---------------------------------|
A|---------------------------|---------------------------|---------------------------------|
E|---------------------------|---------------------------|---------------------------------|


E|---------------------------------|-----------------|-----------------------|---------------------------------|
B|-0---0-------0---0---0-------0---|-----------------|-----------------------|-0---0---0---0---0---0---0---0---|
G|---------------------------------|-0---0-----------|-----------0---0---2---|---------------------------------|
D|---------------------------------|-----------------|-----------------------|---------------------------------|
A|---------------------------------|-----------------|-----------------------|---------------------------------|
E|---------------------------------|-----------------|-----------------------|---------------------------------|


E|---------------------------------|------------------------|-----0-------0----------------|
B|-0---0-------0---0---0-------0---|--------------------3---|-3---1---3---1---3----1---0---|
G|---------------------------------|-0---0--------------4---|-4-------4-------4----2---0---|
D|---------------------------------|------------------------|------------------------------|
A|---------------------------------|------------------------|------------------------------|
E|---------------------------------|------------------------|------------------------------|


E|---------------------------|--------|--------|--------|---------------------------|
B|-0---0---0---0-------------|--------|--------|--------|---------------------------|
G|-0---0---0---0-------------|--------|--------|--------|-0---0---0-----------------|
D|-5---5---5---4---4---0-----|-0------|--------|--------|-0---0---2---4---4---0-----|
A|-5---5---7---5---5---2-----|-2------|--------|--------|-------------5---5---2-----|
E|---------------------------|--------|--------|--------|---------------------------|


E|--------|--------|--------|---------------------------|--------|--------|--------|
B|--------|--------|--------|---------------------------|--------|--------|--------|
G|--------|--------|--------|-0---0---0-----------------|--------|--------|--------|
D|-0------|--------|--------|-0---0---2---4---4---0-----|-0------|--------|--------|
A|-2------|--------|--------|-------------5---5---2-----|-2------|--------|--------|
E|--------|--------|--------|---------------------------|--------|--------|--------|


E|---------------------------|--------|--------|--------|-----------------------|------------------------|
B|---------------------------|--------|--------|--------|-----------------------|------------------------|
G|-0---0---0-----------------|--------|--------|--------|-----------------------|-0----------------------|
D|-0---0---2---4---4---0-----|-0------|--------|--------|-----------0---0---0---|------0---0---0---2-----|
A|-------------5---5---2-----|-2------|--------|--------|-----------------------|------------------------|
E|---------------------------|--------|--------|--------|-----------------------|------------------------|


E|--------------------|------------------------------|---------------------------|
B|----------------0---|-0---0---0---0---0------------|---------------------------|
G|--------------------|----------------------2---2---|-2---0---------------------|
D|--------------------|------------------------------|-------------------0---0---|
A|--------------------|------------------------------|---------------------------|
E|--------------------|------------------------------|---------------------------|


E|---------------------------------|------------------------|------------------------------|
B|---------------------------------|------------------------|-----1---0---1---0------------|
G|-0---0-------------------0-------|--------------------2---|-4--------------------2---0---|
D|---------0---0---0---0-------0---|-0---2------------------|------------------------------|
A|---------------------------------|------------------------|------------------------------|
E|---------------------------------|------------------------|------------------------------|


E|---------------------------|------------------------|---------------------------------|
B|---------------------------|------------------------|-----0---0---0---0---------------|
G|-0-------------------------|-0----------------------|---------------------2---0---2---|
D|---------------0---0---0---|-----0----2---2---------|---------------------------------|
A|---------------------------|------------------------|---------------------------------|
E|---------------------------|------------------------|---------------------------------|


E|------------------------------|------------------------|---------------------------|
B|-0----0---0---0---0-------0---|------------------------|---------------------------|
G|------------------------------|-0---0------------------|-0-----------------0-------|
D|------------------------------|--------------------0---|------0---0---0--------0---|
A|------------------------------|------------------------|---------------------------|
E|------------------------------|------------------------|---------------------------|


E|------------------------|---------------------------------|-------------|-------------------------------------|
B|--------------------0---|---------------------------------|-------------|-------------------------------------|
G|------------------------|-2---2-------2---2-------2---2---|-4-----------|-0---0---0---0---0---0--0--0--0------|
D|-0---2------------------|---------------------4-----------|-------------|-------------------------------------|
A|------------------------|---------------------------------|-------------|-------------------------------------|
E|------------------------|---------------------------------|-------------|-------------------------------------|


E|-------------------------------------|-------------------------------------|-------------------------------------|
B|-------------------------------------|-------------------------------------|-------------------------------------|
G|-0---0---0---0---0---0--0--0--0------|-0---0---0---0---0---0--0--0--0------|-0---0---0---0---0---0--0--0--0------|
D|-------------------------------------|-------------------------------------|-------------------------------------|
A|-------------------------------------|-------------------------------------|-------------------------------------|
E|-------------------------------------|-------------------------------------|-------------------------------------|


E|-------------------------------------|--------|-------------------------------------|
B|-------------------------------------|--------|-------------------------------------|
G|-0---0---0---0---0---0--0--0--0------|--------|-0---0---0---0---0---0--0--0--0------|
D|-------------------------------------|--------|-------------------------------------|
A|-------------------------------------|--------|-------------------------------------|
E|-------------------------------------|--------|-------------------------------------|


E|--------|--------|--------|--------|--------|--------|--------|--------|--------|
B|--------|--------|--------|--------|--------|--------|--------|--------|--------|
G|--------|--------|--------|--------|--------|--------|--------|--------|--------|
D|--------|--------|--------|--------|--------|--------|--------|--------|--------|
A|--------|--------|--------|--------|--------|--------|--------|--------|--------|
E|--------|--------|--------|--------|--------|--------|--------|--------|--------|


E|--------|--------|--------|--------|--------|--------|--------|--------|--------|
B|--------|--------|--------|--------|--------|--------|--------|--------|--------|
G|--------|--------|--------|--------|--------|--------|--------|--------|--------|
D|--------|--------|--------|--------|--------|--------|--------|--------|--------|
A|--------|--------|--------|--------|--------|--------|--------|--------|--------|
E|--------|--------|--------|--------|--------|--------|--------|--------|--------|


E|------------------------------|------------------------------|---------------------------|
B|----------0---0-----------0---|-------------0----------------|----------0---0--------0---|
G|-4----0-----------0-----------|-0---0-----------0---0--------|-4----0-----------0--------|
D|------------------------------|------------------------------|---------------------------|
A|------------------------------|------------------------------|---------------------------|
E|------------------------------|------------------------------|---------------------------|


E|------------------------|---------------------------------|------------------------------|
B|----------0-------------|-0-----------0-------------------|------------------------------|
G|-0---0--------0---0-----|-----0---0-------0---0-------4---|-0---0-------7---0---0--------|
D|------------------------|---------------------------------|------------------------------|
A|------------------------|---------------------------------|------------------------------|
E|------------------------|---------------------------------|------------------------------|


E|------------------------------|------------------------|------------------------------|
B|-0-----------0----------------|----------3-------------|----------0---0-----------0---|
G|-----0---0-------0---0----4---|-0---0--------0---0-----|-4----0-----------0-----------|
D|------------------------------|------------------------|------------------------------|
A|------------------------------|------------------------|------------------------------|
E|------------------------------|------------------------|------------------------------|


E|------------------------------|------------------------------|------------------------|
B|-------------0----------------|----------0---0-----------0---|----------0-------------|
G|-0---0-----------0---0--------|-4----0-----------0-----------|-0---0--------0---0-----|
D|------------------------------|------------------------------|------------------------|
A|------------------------------|------------------------------|------------------------|
E|------------------------------|------------------------------|------------------------|


E|---------------------------------|---------------------------|--------|--------|
B|-0-----------0-------------------|---------------------------|--------|--------|
G|-----0---0-------0---0-------4---|-0---0-------7---0---0-----|--------|--------|
D|---------------------------------|---------------------------|--------|--------|
A|---------------------------------|---------------------------|--------|--------|
E|---------------------------------|---------------------------|--------|--------|


E|------------------------------|-----3---3---3---3---------|---------------------------------|
B|-4---1---1---1---1---1----1---|-1---4---4---4---4---------|-1---1---------------------------|
G|-5---8---1---1---1---1----1---|-1-------------------------|---------1---1---1---1---1---1---|
D|------------------------------|---------------------------|---------------------------------|
A|------------------------------|---------------------------|---------------------------------|
E|------------------------------|---------------------------|---------------------------------|


E|------------------------------|------------------------|------------------------------|
B|-------------4---4------------|------------------------|-4----------------------------|
G|-0---0---0-----------0----0---|-1-------------1----1---|-----1------------1---3---1---|
D|------------------------------|------------------------|------------------------------|
A|------------------------------|------------------------|------------------------------|
E|------------------------------|------------------------|------------------------------|


E|---------------------------|---------------------------|------------------------------|
B|-4-------------------------|---------------------------|-1---1---1---1---1---1----1---|
G|-----1----0---0---1--------|---------------1---1---3---|------------------------------|
D|-----------------------3---|-3-------------------------|------------------------------|
A|---------------------------|---------------------------|------------------------------|
E|---------------------------|---------------------------|------------------------------|


E|---------------------------------|-----------------|-----------------------|---------------------------------|
B|-1---1-------1---1---1-------1---|-----------------|-----------------------|-1---1---1---1---1---1---1-------|
G|---------------------------------|-1---1-----------|-----------1---1---3---|-----------------------------5---|
D|---------------------------------|-----------------|-----------------------|---------------------------------|
A|---------------------------------|-----------------|-----------------------|---------------------------------|
E|---------------------------------|-----------------|-----------------------|---------------------------------|


E|---------------------------------|-----------------|--------|---------------------------------|
B|-1---1-------1---1---1-------1---|-----------------|--------|-4---1---1---1---1---1---1---1---|
G|---------------------------------|-1---1-----------|--------|-5---8---1---1---1---1---1---1---|
D|---------------------------------|-----------------|--------|---------------------------------|
A|---------------------------------|-----------------|--------|---------------------------------|
E|---------------------------------|-----------------|--------|---------------------------------|


E|-----3---3---3---3---------|---------------------------------|------------------------------|
B|-1---4---4---4---4---------|-1---1---------------------------|-------------4---4------------|
G|-1-------------------------|---------1---1---1---1---1---1---|-0---0---0-----------0----0---|
D|---------------------------|---------------------------------|------------------------------|
A|---------------------------|---------------------------------|------------------------------|
E|---------------------------|---------------------------------|------------------------------|


E|------------------------|------------------------------|---------------------------|
B|------------------------|-4----------------------------|-4-------------------------|
G|-1-------------1----1---|-----1---1--------1---3---1---|-----1----0---0---1--------|
D|------------------------|------------------------------|-----------------------3---|
A|------------------------|------------------------------|---------------------------|
E|------------------------|------------------------------|---------------------------|


E|---------------------------|---------------------------------|---------------------------------|
B|---------------------------|-1---1---1---1---1---1---1---1---|-1---1-------1---1---1-------1---|
G|---------------1---1---3---|---------------------------------|---------------------------------|
D|-3-------------------------|---------------------------------|---------------------------------|
A|---------------------------|---------------------------------|---------------------------------|
E|---------------------------|---------------------------------|---------------------------------|


E|-----------------|-----------------------|---------------------------------|---------------------------------|
B|-----------------|-----------------------|-1---1---1---1---1---1---1-------|-1---1-------1---1---1-------1---|
G|-1---1-----------|-----------1---1---3---|-----------------------------5---|---------------------------------|
D|-----------------|-----------------------|---------------------------------|---------------------------------|
A|-----------------|-----------------------|---------------------------------|---------------------------------|
E|-----------------|-----------------------|---------------------------------|---------------------------------|


E|------------------------|-----1-------1----------------|---------------------------|
B|--------------------4---|-4---2---4---2---4----2---1---|-1---1---1---1-------------|
G|-1---1--------------5---|-5-------5-------5----3---1---|-1---1---1---1-------------|
D|------------------------|------------------------------|-6---6---6-----------1-----|
A|------------------------|------------------------------|-------------10--10--3-----|
E|------------------------|------------------------------|-------------11--11--------|


E|--------|--------------------|-----1-------1----------------|---------------------------|
B|--------|----------------4---|-4---2---4---2---4----2---1---|-1---1---1---1-------------|
G|--------|----------------5---|-5-------5-------5----3---1---|-1---1---1---1-------------|
D|-1------|--------------------|------------------------------|-6---6---6-----------1-----|
A|-3------|--------------------|------------------------------|-------------10--10--3-----|
E|--------|--------------------|------------------------------|-------------11--11--------|


E|--------|--------|--------|---------------------------|--------|--------|--------|
B|--------|--------|--------|---------------------------|--------|--------|--------|
G|--------|--------|--------|-1---1---1---0---0---------|--------|--------|--------|
D|-1------|--------|--------|-1---1---3---1---1---1-----|-1------|--------|--------|
A|-3------|--------|--------|---------------------3-----|-3------|--------|--------|
E|--------|--------|--------|---------------------------|--------|--------|--------|


E|---------------------------|--------|--------|--------|--------|
B|---------------------------|--------|--------|--------|--------|
G|-1---1---1---0---0---------|--------|--------|--------|--------|
D|-1---1---3---1---1---1-----|-1------|--------|--------|--------|
A|---------------------3-----|-3------|--------|--------|--------|
E|---------------------------|--------|--------|--------|--------|


Login to Edit
Edit
YouTube
Video
View Sheet Music
Sheet
Music
Print
Speed:
Play Intro (login for the full song)
Play
Intro
Sustain:
Download midi (intro) ...

 Rate:
5 star
4 star
3 star
2 star
1 star
 

Comments (0)
 

No comments yet...

Comment on this tab   -   Unhelpful comments are exterminated.
  Your Guest Name:
      [Member Login]
  Comments:
 

Don't understand the tab?
See "How to Read Guitar Tabs".
Supported tags:
<i>italics</i>
<b>bold</b>
<u>underline</u>
<tab>tab lines</tab>
  Are you a spam robot?

If not, solve the equation:




[1167 TabNabbers online]
©2020 TabNabber.com - Musician Supported Contact us Advertising Merchandise Privacy Policy Terms of Use facebook Twitter