TabNabber Tabs   Musician Supported
  Music Tabs
Espa˝ol English
Franšais Русский
Artist: # A B C D E F G H I J K L M N O P Q R S T U V W X Y Z
electric guitar

Guitar Tab, Chords



(0 from 0 votes)
18,648 Views, Last Update 7 years ago
by: BA


Admin
[Admin]
Just playin around w/ the guitar


e|-0------------|-0----------------|-1------------|-1------------|
b|--0-----------|--0---------------|--1-----------|--1-----------|
g|---0-------0--|---0-------0------|---1-------1--|---1-------1--|
d|----2-----2---|----2-----2-------|----3-----3---|----3-----3---|
a|-----2---2----|-----2---2--------|-----3---3----|-----3---3----|
e|------0-------|------0-----------|------1-------|------1-------|

e|12.-----------|12----------------|13.-----------|13------------|
b|--0-----------|--0---------------|--1-----------|--1-----------|
g|---0-------0--|---0-------0------|---1-------1--|---1-------1--|
d|----2-----2---|----2-----2-------|----3-----3---|----3-----3---|
a|-----2---2----|-----2---2--------|-----3---3----|-----3---3----|
e|------0-------|------0-----------|------1-------|------1-------|


[CC
]   [CmCm
]   [AmAm
] [C#7C#7
]    [Bbm6Bbm6
]   [Bsus2Bsus2
]    [Dsus4Dsus4
]   [AbAb
]    [G#G#
] [C#C#
]   [C#mC#m
]
Song Chord Charts:
C
Cm
Am
C#7
Bbm6
Bsus2
Dsus4
Ab
G#
C#
C#m


Login to Edit
Edit
YouTube
Video
View Sheet Music
Sheet
Music
Print
Speed:
Play Intro (login for the full song)
Play
Intro
Sustain:
Download midi (intro) ...

 Rate:
5 star
4 star
3 star
2 star
1 star
 

Comments (0)
 

No comments yet...

Comment on this tab   -   Unhelpful comments are exterminated.
  Your Guest Name:
      [Member Login]
  Comments:
 

Don't understand the tab?
See "How to Read Guitar Tabs".
Supported tags:
<i>italics</i>
<b>bold</b>
<u>underline</u>
<tab>tab lines</tab>
  Are you a spam robot?

If not, solve the equation:




[341 TabNabbers online]
©2021 TabNabber.com - Musician Supported Contact us Advertising Merchandise Privacy Policy Terms of Use facebook Twitter