TabNabber Tabs   Musician Supported
  Music Tabs
Espa˝ol English
Franšais Русский
guitar

Guitar Tab, Chords



(0 from 0 votes)
4,832 Views, Last Update 18 days ago updated
by: Gman
guest
[Guest]
 oh oh say can you seeeee
e|-----------------0------4--2-0----------------|------4---2-0----------0--0-----------|
B|0------------0--------------------------------|--0-0----------4---2-4-------0--------|
G|---1-----1-----------------------1---3---4----|--------------------------------1-----|x2
D|-----2----------------------------------------|-----------------------------------2--|
A|----------------------------------------------|--------------------------------------|
E|----------------------------------------------|--------------------------------------|
                               (play twice)
 and the rockets
e|4---4-4--5--7--7----5-4-2---4--5--5----|
B|---------------------------------------|
G|---------------------------------------|
D|---------------------------------------|
A|---------------------------------------|
E|---------------------------------------|

 gave proof
e|5---4---2-0-----------0----------------|
B|--------------4---2-4------------------|
G|-------------------------1---3---4-----|
D|---------------------------------------|
A|---------------------------------------|
E|---------------------------------------|


e|----------------------2-5-4-2-0-0------|
B|0--5--5--5-4-2--2--2--------------4----|
G|---------------------------------------|
D|---------------------------------------|
A|---------------------------------------|
E|---------------------------------------|

e|------0---2-4-5-7-----0-2-4----5--2----0-------|
B|--0-0-------------------------|
G|------------------------------|
D|------------------------------|
A|------------------------------|
E|------------------------------|



Login to Edit
Edit
YouTube
Video
View Sheet Music
Sheet
Music
Print
Speed:
Play Intro (login for the full song)
Play
Intro
Sustain:
Download midi (intro) ...

 Rate:
5 star
4 star
3 star
2 star
1 star
 

Comments (0)
 

No comments yet...

Comment on this tab   -   Unhelpful comments are exterminated.
  Your Guest Name:
      [Member Login]
  Comments:
 

Don't understand the tab?
See "How to Read Guitar Tabs".
Supported tags:
<i>italics</i>
<b>bold</b>
<u>underline</u>
<tab>tab lines</tab>
  Are you a spam robot?

If not, solve the equation:




[27031 TabNabbers online]


©2022 TabNabber.com - Musician Supported Contact us Advertising Merchandise Privacy Policy Terms of Use facebook Twitter