TabNabber Tabs   Musician Supported
  Music Tabs
Espa˝ol English
Franšais Русский
Artist: # A B C D E F G H I J K L M N O P Q R S T U V W X Y Z
bass

Bass Guitar Tab, Chords



(0 from 0 votes)
1,489 Views, Last Update 1 year ago
by: Anonymous
guest
[Guest]
G|-------|--------------------------------|------------------------------
D|-------|------------2-2-----------------|------------2-2-------------2-
A|--5/3--|-0--3-3-0-0-----5-5-3-3-5-5-3-3-|-0--3-3-0-0-----5-5-3-3-5-5---
E|-------|---0----------------------------|---0--------------------------

G|--------------------------------------------------------
D|-----5-----3h5-55555555555----5-----3h5-555555h7-5h7-5h7
A|-7---3-3------------------7---3-3-----------------------
E|-5------------------------5-----------------------------

G|--------------------------------------------------------|
D|-----5-----3h5-55555555555----5-----3h5-55555555555-----|
A|-7---3-3------------------7---3-3-----------------------|
E|-5------------------------5-----------------------------|

     â€œPara el tiempo de la pesca…  …justo es el que quiera echarlo yee!!”
            5 veces
G|--------------------------------|------------------------------
D|------------2-2-----------------|------------2-2-------------2-
A|-0--3-3-0-0-----5-5-3-3-5-5-3-3-|-0--3-3-0-0-----5-5-3-3-5-5---
E|---0----------------------------|---0--------------------------

G|--------------------------------------------------------
D|-----5-----3h5-55555555555----5-----3h5-555555h75h75h7--
A|-7---3-3------------------7---3-3-----------------------
E|-5------------------------5-----------------------------

G|--------------------------------------------------------|
D|-----5-----3h5-55555555555----5-----3h5-55555555555-----|
A|-7---3-3------------------7---3-3-----------------------|
E|-5------------------------5-----------------------------|

(empieza el solo del flaco)
G|---------------------------------------------------
D|-------------------------------------------5h7-----
A|-5-55-55-55-53-33-33-33-3--------------5h7-----5h7-
E|-------------------------6-66-66-66-65-------------

G|-------------------------------------------------
D|-------------------------------------------------
A|-5-55-55-55-53-33-33-33-3----------------2--3--4-
E|-------------------------6-66-66-66-65-5---------

G|-------------------------------------------------
D|----7-7---7-7---5-5---5-5------------------------
A|-5-5---5-5---3-3---3-3------8-8---8-8---2-23-34-4
E|-------------------------6-6---6-6---5-5---------

G|-------------------------------------------------
D|----7-7---7-7---5-5---5-5------------------------
A|-5-5---5-5---3-3---3-3------8-8---8-8---2-23-34-4
E|-------------------------6-6---6-6---5-5---------

G|-------------------------------------------------
D|----7--------------------------------------------
A|-5-5--55-55-53-33-33-33-3----------------2--3--4-
E|-------------------------6-66-66-66-65-5---------

G|-------------------------------------------------
D|-------------------------------------------------
A|-5-55-55-55-53-33-33-33-3----------------2--3--4-
E|-------------------------6-66-66-66-65-5---------

G|------------------------------------------------------------------
D|--------------------------------------------------------------4---
A|-5--0--3-5--0350355----5--0--3-5--0350355----7-----5-7--035035----
E|------------------------------------------------7-----------------

     â€œla caridad…”
G|--------------------------------------------------
D|-7------------------------------------------------
A|---5--5----4--4-----------------------------------
E|-------------------3--0-3-0-3-0-3-0-3-0-3-0-3-0-3-

     â€œla tempestad…”
G|--------------------------------------------------
D|--------------------------------------------------
A|---5--5----4--4-----------------------------------
E|-------------------3--0-3-0-3-0-3-0-3-0-3-0-3-0-3-

          â€œuohoo!!, uohoo!!”
                  2 veces
G|-------------------------------------------|------
D|-------------------------------------------|4-----
A|-----------5--5------------0-2----------0-2|------
E|---0--0------------0-1-2-4-----0-01-2-4----|------

     â€œNunca se sabra la causa…    â€¦lleva su venganza a cabo yee!!”
            5 veces
G|--------------------------------|------------------------------
D|------------2-2-----------------|------------2-2-------------2-
A|-0--3-3-0-0-----5-5-3-3-5-5-3-3-|-0--3-3-0-0-----5-5-3-3-5-5---
E|---0----------------------------|---0--------------------------

G|--------------------------------------------------------
D|-----5-----3h5-55555555555----5-----3h5-555555h75h75h7--
A|-7---3-3------------------7---3-3-----------------------
E|-5------------------------5-----------------------------

G|--------------------------------------------------------|
D|-----5-----3h5-55555555555----5-----3h5-55555555555-----|
A|-7---3-3------------------7---3-3-----------------------|
E|-5------------------------5-----------------------------|

G|---------------------------------------------------
D|-------------------------------------------5h7-----
A|-5-55-55-55-53-33-33-33-3--------------5h7-----5h7-
E|-------------------------6-66-66-66-65-------------

G|----------------------------------------------------
D|----------------------------------------------------
A|-5-55-55-55-53-33-33-33-3-----------------2---3---4-
E|-------------------------6-66-66-66-65-5-2---3---4--

G|-----------------------------------------------
D|----7-7---7-7---5-5---5-5----------------------
A|-5-5---5-5---3-3---3-3------8-8---8-8--2--3--4-
E|-------------------------6-6---6-6---5---------

G|--------7--------------5--------------3-------------------
D|----5h7---7-5-7----3h5---5-3-5----1h3---3-1-3-3--3-3--3-3-
A|-5-5------------3-3------------1-1------------------------
E|----------------------------------------------------------

G|-----------------------------------------------
D|----7-7---7-7---5-5---5-5----------------------
A|-5-5---5-5---3-3---3-3------8-8---8-8--2--3--4-
E|-------------------------6-6---6-6---5---------

G|-------------------------------------------------
D|-------------------------------------------------
A|-5-55-55-55-53-33-33-33-3----------------2--3--4-
E|-------------------------6-66-66-66-65-5---------


Login to Edit
Edit
YouTube
Video
View Sheet Music
Sheet
Music
Print
Speed:
Play Intro (login for the full song)
Play
Intro
Sustain:
Download midi (intro) ...

 Rate:
5 star
4 star
3 star
2 star
1 star
 

Comments (0)
 

No comments yet...

Comment on this tab   -   Unhelpful comments are exterminated.
  Your Guest Name:
      [Member Login]
  Comments:
 

Don't understand the tab?
See "How to Read Guitar Tabs".
Supported tags:
<i>italics</i>
<b>bold</b>
<u>underline</u>
<tab>tab lines</tab>
  Are you a spam robot?

If not, solve the equation:




[1003 TabNabbers online]
©2020 TabNabber.com - Musician Supported Contact us Advertising Merchandise Privacy Policy Terms of Use facebook Twitter