TabNabber Tabs   Musician Supported
  Music Tabs
Espa˝ol English
Franšais Русский
Artist: # A B C D E F G H I J K L M N O P Q R S T U V W X Y Z
guitar

Guitar Tab, Chords



(0 from 0 votes)
2,173 Views, Last Update 1 year ago
by: Anonymous
guest
[Guest]
E|-----------------|-----------------|-----------------|--------------------|--
B|--5--------------|--5--------------|--5--------------|--5-----------------|--
G|-----7-----5-----|-----7-----5--7--|-----7-----5-----|-----7-----5--7-----|--
D|--------7-----7--|--------7--------|--------7-----7--|--------7--------7--|--
A|-----------------|-----------------|-----------------|--------------------|--
D|-----------------|-----------------|-----------------|--------------------|--


E|---------------------------------------------------|---------------------------------------------------|--
B|---------------------------------------------------|---------------------------------------------------|--
G|---------------------------------------------------|---------------------------------------------------|--
D|---------------------------------------------------|---------------------------------------------------|--
A|---------------------------------------------------|---------------------------------------------------|--
D|--12--0--10/15--0--10h12--0--10/15--0--10--10--11--|--12--0--10/15--0--10h12--0--10/15--0--10--10--13--|--

E|-----------------------------------------|-----------------------------------------|--
B|-----------------------------------------|-----------------------------------------|--
G|-----------------------------------------|-----------------------------------------|--
D|--12--0--3--0--12--0--3--0--3--0--7--00--|--12--0--3--0--12--0--3--0--8--7--5--00--|--
A|--12--0--3--0--12--0--3--0--3--0--7--00--|--12--0--3--0--12--0--3--0--8--7--5--00--|--
D|--12--0--3--0--12--0--3--0--3--0--7--00--|--12--0--3--0--12--0--3--0--8--7--5--00--|--


E|----------------------------------------|----------------------------------------|--
B|----------------------------------------|----------------------------------------|--
G|----------------------------------------|----------------------------------------|--
D|--12--0--3--0--12--0--3--0--3--0--7--0--|--12--0--3--0--12--0--3--0--8--7--5--0--|--
A|--12--0--3--0--12--0--3--0--3--0--7--0--|--12--0--3--0--12--0--3--0--8--7--5--0--|--
D|--12--0--3--0--12--0--3--0--3--0--7--0--|--12--0--3--0--12--0--3--0--8--7--5--0--|--

E|-----------------------------------------|-----------------------------------------|--
B|-----------------------------------------|-----------------------------------------|--
G|-----------------------------------------|-----------------------------------------|--
D|--12--0--3--0--12--0--3--0--3--0--7--00--|--12--0--3--0--12--0--3--0--8--7--5--00--|-- 
A|--12--0--3--0--12--0--3--0--3--0--7--00--|--12--0--3--0--12--0--3--0--8--7--5--00--|--
D|--12--0--3--0--12--0--3--0--3--0--7--00--|--12--0--3--0--12--0--3--0--8--7--5--00--|--

E|-----------------------------------------|-----------------------------------------|--
B|-----------------------------------------|-----------------------------------------|--
G|-----------------------------------------|-----------------------------------------|--
D|--12--0--3--0--12--0--3--0--3--0--7--00--|--12--0--3--0--12--0--3--0--8--7--5--00--|--
A|--12--0--3--0--12--0--3--0--3--0--7--00--|--12--0--3--0--12--0--3--0--8--7--5--00--|--
D|--12--0--3--0--12--0--3--0--3--0--7--00--|--12--0--3--0--12--0--3--0--8--7--5--00--|--

E|----------------------------------------|---------------------------------------|--
B|----------------------------------------|---------------------------------------|--
G|----------------------------------------|---------------------------------------|--
D|--12--0--3--0--12--0--3--0--3--0--7--0--|--12--0--3--0--12--0--3--0--8--0--7/5--|-- 
A|--12--0--3--0--12--0--3--0--3--0--7--0--|--12--0--3--0--12--0--3--0--8--0--7/5--|--
D|--12--0--3--0--12--0--3--0--3--0--7--0--|--12--0--3--0--12--0--3--0--8--0--7/5--|--


E|------------------------------------------------------------------------|--
B|------------------------------------------------------------------------|--
G|------------------------------------------------------------------------|--
D|------------------------------------------------------------------------|-- X4
A|------------------------------------------------------------------------|--
D|--0-----0-0-0-----0-0-0-0-0-----0-----0-0-0-----0-0-0-----0-0-0-0-0-0-0-|--


E|---------------------------------------------------|---------------------------------------------|--
B|---------------------------------------------------|---------------------------------------------|--
G|---------------------------------------------------|---------------------------------------------|--
D|---------------------------------------------------|---------------------------------------------|--
A|---------------------------------------------------|---------------------------------------------|--
D|--12--0--10/15--0--10h12--0--10/15--0--10--10--11--|--12--0--10/15--0--10h12--0--10/15--0--10----|--


E|----------------------------------------------------------------------------------------------------------------------------------|--
B|----------------------------------------------------------------------------------------------------------------------------------|--
G|------------------------------------------------------------------------------------------19------------10------------------------|--
D|------------------10------10--12--10--12--15--12--15--17--15--17--19--17--19--22--19--22------0--12--0------10--0--10h12----------|--
A|----------10--12------12---------------------------------------------------------------------------------------------------10h12--|--
D|--10--12--------------------------------------------------------------------------------------------------------------------------|--

E|-----|--
B|--3--|--
G|--2--|--
D|--0--|--
A|--0--|--
D|--0--|--

E|---------------------------------------------------|---------------------------------------------------|--
B|---------------------------------------------------|---------------------------------------------------|--
G|---------------------------------------------------|---------------------------------------------------|--
D|---------------------------------------------------|---------------------------------------------------|-- X2
A|---------------------------------------------------|---------------------------------------------------|--
D|--12--0--10/15--0--10h12--0--10/15--0--10--10--11--|--12--0--10/15--0--10h12--0--10/15--0--10--10--13--|--

E|-----------------------------------------|-----------------------------------------|--
B|-----------------------------------------|-----------------------------------------|--
G|-----------------------------------------|-----------------------------------------|--
D|--12--0--3--0--12--0--3--0--3--0--7--00--|--12--0--3--0--12--0--3--0--8--7--5--00--|-- X1
A|--12--0--3--0--12--0--3--0--3--0--7--00--|--12--0--3--0--12--0--3--0--8--7--5--00--|--
D|--12--0--3--0--12--0--3--0--3--0--7--00--|--12--0--3--0--12--0--3--0--8--7--5--00--|--

E|----------------------------------------|---------------------------------------|--
B|----------------------------------------|---------------------------------------|--
G|----------------------------------------|---------------------------------------|--
D|--12--0--3--0--12--0--3--0--3--0--7--0--|--12--0--3--0--12--0--3--0--8--0--7/5--|-- X1
A|--12--0--3--0--12--0--3--0--3--0--7--0--|--12--0--3--0--12--0--3--0--8--0--7/5--|--
D|--12--0--3--0--12--0--3--0--3--0--7--0--|--12--0--3--0--12--0--3--0--8--0--7/5--|--

E|------------------------------------------------------------------------|--
B|------------------------------------------------------------------------|--
G|------------------------------------------------------------------------|--
D|------------------------------------------------------------------------|-- X4
A|------------------------------------------------------------------------|--
D|--0-----0-0-0-----0-0-0-0-0-----0-----0-0-0-----0-0-0-----0-0-0-0-0-0-0-|--

E|-------------------------------|-------------------------------|--
B|-------------------------------|-------------------------------|--
G|-------------------------------|-------------------------------|--
D|--0--0--8--0--5--0-------------|--0--0--8--0--3--0-------------|--
A|--0-----8-----5----------------|--0-----8-----3----------------|--
D|--0-----8-----5-----10--10h12--|--0-----8-----3-----10--10h12--|--


E|-----------------|--
B|-----3--11-6-----|--
G|-----2--10-5-----|--
D|-----0--8--3--5--|--
A|-----0--8--3--5--|--
D|--0--0--8--3--5--|--

with fuzz, harmonics
E|-----------------------------|--
B|-----------------------------|--
G|-----------------------------|--
D|----------12----------14p0---|--
A|------12----------15---------|--
D|--12----------15-------------|--

harmonics
E|-------------------------|--
B|-------------------------|--
G|----------------------0--|--
D|------12------10--12-----|--
A|----------12-------------|--
D|--12---------------------|--


(not exact, just feel this part out, LOTS of energy!)
E|----------------------------------------------------------|--
B|--15-----15-----15-----15-----18-----15-----15-----15-----|--
G|--17b19--17b19--17b19--17b19--17b19--17b19--17-----17-----|--
D|----------------------------------------------------------|--
A|----------------------------------------------------------|--
D|----------------------------------------------------------|--

(not exact, just feel this part out, LOTS of energy!)
E|-----------------------------------------------------|--
B|--3----3----3----6----3---------5--------------------|--
G|--5b7--5b7--5b7--5b7--5--7-7-7--7b9--5-7-5-0---------|--
D|---------------------------------------------5-7-5-0-|--
A|-----------------------------------------------------|--
D|-----------------------------------------------------|--

E|-----------------------------|---------------|------------|--
B|-----------------------------|---------------|------------|--
G|-----------------------------|---------------|------------|--
D|--15--0--5--0--17--0--10--0--|--12--0--3--0--|--8--10--0--|--
A|--15--0--5--0--17--0--10--0--|--12--0--3--0--|--8--10--0--|--
D|--15--0--5--0--17--0--10--0--|--12--0--3--0--|--8--10--0--|--

with wah
E|-------------|---------------------|---------------------|---------|--
B|-------------|---------------------|---------------------|---------|--
G|-------------|---------------------|---------------------|---------|--
D|--10--12b14--|--12b14--12--10--12--|--12b14--12--10------|------8--|--
A|-------------|---------------------|-----------------12--|--12-----|--
D|-------------|---------------------|---------------------|---------|--


E|-------------|---------------------|------------------------|---------|--
B|-------------|---------------------|------------------------|---------|--
G|-------------|---------------------|------------------------|---------|--
D|--10--12b14--|--12b14--12--10--12--|--12b14--12--10-----12--|------8--|--
A|-------------|---------------------|-----------------12-----|--12-----|--
D|-------------|---------------------|------------------------|---------|--


E|--------|------------------------------------------------------------------------|--
B|--------|------------------------------------------------------------------------|--
G|--------|--------------------17--------------17--------------17------------------|--
D|--8/12--|--12/18--19-18--19------19--18--19------19--18--19------19--18--19--19--|--
A|--------|------------------------------------------------------------------------|--
D|--------|------------------------------------------------------------------------|--

E|----------------------------------------|--
B|----------------------------------------|--
G|----------------------------------------|--
D|-----------------------------17--16--0--|-- x2
A|--17--17--18--17--0--15--15-------------|--
D|----------------------------------------|--

E|----------------------------------------|--
B|----------------------------------------|--
G|----------------------------------------|--
D|-----------------------------17--16--0--|--
A|--17--17b18-------0--15--15-------------|--
D|----------------------------------------|--

E|----------------------------------|----------------------------------|--
B|----------------------------------|----------------------------------|--
G|--------------14--12--14----------|--------------14--12--14--15--14--|--
D|--12--14--15------------------14--|--12--14--15----------------------|--
A|--------------------------15------|----------------------------------|--
D|----------------------------------|----------------------------------|--

E|-----------------------------------------|--------------------------------------|--
B|--------------------------13-------------|--------------------------------------|--
G|--------------14--12--14------14--12--0--|--------------14--12--14--------------|--
D|--12--14--15-----------------------------|--12--14--15------------------14-0-12-|--
A|-----------------------------------------|--------------------------15----------|--
D|-----------------------------------------|--------------------------------------|--

E|--------------------|--------------|------------------|--------------|------------------|--
B|--------------------|--------------|------------------|--------------|------------------|--
G|--------------------|--------------|------------------|--------------|------------------|--
D|--0--0--0--0--0--0--|--------------|--10--12----------|--------------|------------------|--
A|--0-----0-----0-----|--------3--5--|----------10--12--|--------3--5--|----------10--12--|--
D|--0-----0-----0-----|--3--5--------|------------------|--3--5--------|--10--12----------|--

palm mute
E|-------------------------------------|-----------------------------------------------------|--
B|-------------------------------------|-----------------------------------------------------|--
G|-------------------------------------|-----------------------------------------------------|--
D|-------------------------------------|-------------------------------0h3h5p3p0-------------|--
A|--------------------------0h3h5p3p0--|------------------------------------------0h3h5p3p0--|--
D|--0--0h3h5p3p0----0h3h5--------------|----0--0h3h5p3p0----0h3h5p3p0------------------------|--

E|---------------------------------|-------------------------------------------|--
B|--------1------------------------|-------------------------------------------|--
G|-----2-----2-----0--2-----2/5\2--|-------------------------------------------|--
D|--0-----------0--------0---------|--0-/12--13--12--0--10--12--0--13--15--13--|--
A|---------------------------------|-------------------------------------------|--
D|---------------------------------|-------------------------------------------|--

E|-------------------------------------------|-------------------------------------------|--
B|-------------------------------------------|-------------------------------------------|--
G|-------------------------------------------|-------------------------------------------|--
D|--0--16--17--16--0--14--16--0--17--19--17--|--0--19--20--19--0--17--19--0--20--22--20--|--
A|-------------------------------------------|-------------------------------------------|--
D|-------------------------------------------|-------------------------------------------|--

E|------------------------------------------------------|--
B|------------------------------------------------------|--
G|------------------------------------------------------|--
D|--0--19--20--0--17--19--0--15--17--0--14--15--12--14--|--
A|------------------------------------------------------|--
D|------------------------------------------------------|--

E|------------------------------------------------------|--
B|------------------------------------------------------|--
G|------------------------------------------------------|--
D|--0--19--20--0--17--19--0--15--17--0--19--20--17--19--|--
A|------------------------------------------------------|--
D|------------------------------------------------------|--

E|----------------------|--------------------------|--
B|----------------------|--------------------------|--
G|--14------12----------|--14------12--------------|--
D|------15------14--12--|------15------15--14--12--|--
A|----------------------|--------------------------|--
D|----------------------|--------------------------|--

E|----------------------|------------------------------|--
B|----------------------|------------------------------|--
G|--14------12----------|--14------12--15--14----------|--
D|------15------14--12--|------15--------------15--12--|--
A|----------------------|------------------------------|--
D|----------------------|------------------------------|--

DOUBLE TIME/PICK
E|----------------------|--------------------------|--
B|----------------------|--------------------------|--
G|--14------12----------|--14------12--------------|--
D|------15------14--12--|------15------15--14--12--|--
A|----------------------|--------------------------|--
D|----------------------|--------------------------|--

DOUBLE TIME/PICK
E|----------------------|------------------------------|--
B|----------------------|------------------------------|--
G|--14------12----------|--14------12--15--14----------|--
D|------15------14--12--|------15--------------15--12--|--
A|----------------------|------------------------------|--
D|----------------------|------------------------------|--

E|---------------------------------------------|--------------|--
B|---------------------------------------------|--------------|--
G|---------------------------------------------|--------------|--
D|--12--12--12b13--0--10--12--0--13p0--12p0----|--15p0--13p0--|--
A|---------------------------------------------|--------------|--
D|---------------------------------------------|--------------|--

E|---------------------------------------------|-------------------------------------------------------|--
B|---------------------------------------------|-------------------------------------------------------|--
G|---------------------------------------------|-------------------------------------------------------|--
D|--12--16--12--0--10--12--0--13p0--12p0-------|--0--8p0--10p0--7--7--0--5--7--0--8p0--7--0------------|--
A|---------------------------------------------|----------------------------------------------7h8p7p0--|--
D|---------------------------------------------|-------------------------------------------------------|--

E|--------------------------------|--
B|--------------------------------|--
G|--------------------------------|--
D|--------0--------2--3h5---------|-- X4
A|-----0--------3-----------3h5---|--
D|--0--------3--------------------|--

E|----------------------------------|-------------------------------|--
B|----------------------------------|-------------------------------|--
G|----------------------------------|-------------------------------|--
D|-------------------0--------------|-------------------0------0----|--
A|-----5/8--7--0h3------------0-----|-----5/8--10--0h3----0--3-0-3--|--
D|--0---------------------0h3----3--|--0------------------0--3---3--|--

E|-----------------------------------------------|--
B|-----------------------------------------------|--
G|-----------------------------------------------|--
D|-----------------------------------------------|-- X4
A|-----------------------------------------3h5---|--
D|--0-0-0-0-----0-0-0-----0-0-0-0-----3h5--------|--

E|------------------------------------------------------------------------|--
B|------------------------------------------------------------------------|--
G|------------------------------------------------------------------------|--
D|------------------------------------------------------------------------|--
A|------------------------------------------------------------------------|--
D|--0-----0-0-0-----0-0-0-0-0-----0-----0-0-0-----0-0-0-----0-0-0-0-0-0-0-|--

E|---------------------------------|----------------------------------------------------------------|--
B|---------------------------------|----------------------------------------------------------------|--
G|---------------------------------|----------------------------------------------------------------|--
D|---------------------------------|------------------------------------------0h3h5h3p0-------------|--
A|-----------3----------0h3h5p3p0--|-----------3---------3---------3---------------------0h3h5p3p0--|--
D|--0--0h3h5-----0h3h5-------------|--0--0h3h5-----0h3h5-----0h3h5-----0h3h5------------------------|--

(LOTS of pinch harmonics in this part)

E|-------------------------------------------------------------------------------------|--
B|-----------------------------13b16--13b15--13--11--13--13b16--13b15------------------|--
G|------------------14b15--14------------------------------------------12--11----------|--
D|--12--12--12--12-------------------------------------------------------------13--12--|--
A|-------------------------------------------------------------------------------------|--
D|-------------------------------------------------------------------------------------|--

(As of now, Im not sure what this sound is. Sounds like a ring modulator. But random string noises work fine here too.)

E|--------------------|--------------|------------------|--------------|------------------|--
B|--------------------|--------------|------------------|--------------|------------------|--
G|--------------------|--------------|------------------|--------------|------------------|--
D|--0--0--0--0--0--0--|--------------|--10--12----------|--------------|------------------|--
A|--0-----0-----0-----|--------3--5--|----------10--12--|--------3--5--|----------10--12--|--
D|--0-----0-----0-----|--3--5--------|------------------|--3--5--------|--10--12----------|--


E|---------------------------------------|--
B|---------------------------------------|--
G|---------------------------------------|--
D|--0--0--0-0-0-----0-0-0-0--------------|--
A|--0-----0-0-0-----0-0-0-0--------------|--
D|--0-----0-0-0-----0-0-0-0--3/5--10/12--|--

E|--------------------------|----------|----------|-----------------|-------------|--
B|--------------------------|----------|----------|--13-------------|-------------|--
G|--------------14--12--14--|----------|------14--|------14--12--0--|-------------|--
D|--12--14--15--------------|------14--|--15------|-----------------|------14--14-|--
A|--------------------------|--15------|----------|-----------------|--15------0--|--
D|--------------------------|----------|----------|-----------------|----------0--|--

E|-----------------|-----------------|-----------------|--------------------|--
B|--5--------------|--5--------------|--5--------------|--5-----------------|--
G|-----7-----5-----|-----7-----5--7--|-----7-----5-----|-----7-----5--7-----|--
D|--------7-----7--|--------7--------|--------7-----7--|--------7--------7--|--
A|-----------------|-----------------|-----------------|--------------------|--
D|-----------------|-----------------|-----------------|--------------------|--

E|-----------------|-----------------|-----------------|--------------------|--
B|-----------------|-----------------|-----------------|--------------------|--
G|-----------------|-----------------|-----------------|--------------------|--
D|-----------------|-----------------|-----------------|--------------------|--
A|--7--5--0--3--0--|--7--5--0--3--5--|--7--5--0--3--0--|--7--5--0--3--5--0--|--
D|-----------------|-----------------|-----------------|--------------------|--

E|--------------------|---------------------|--------------------|------------------------|--
B|--------------------|---------------------|--------------------|------------------------|--
G|--------------------|---------------------|--------------------|------------------------|--
D|--------------------|---------------------|--------------------|------------------------|--
A|--------------------|---------------------|--------------------|------------------------|--
D|--14--12--0--12--0--|--14--12--0--10--12--|--14--12--0--12--0--|--14--12--0--10--12--0--|--

E|-----------------|-----------------|-----------------|--------------------|--
B|-----------------|-----------------|-----------------|--------------------|--
G|-----------------|-----------------|-----------------|--------------------|--
D|-----------------|-----------------|-----------------|--------------------|--
A|-----------------|-----------------|-----------------|--------------------|--
D|--7--5--0--3--0--|--7--5--0--3--5--|--7--5--0--3--0--|--7--5--0--3--5--0--|--

E|---------------------------------|----------------------------------|--
B|-----3-----8--------6------------|----------------------------------|--
G|-----2-----7--------5------------|----------------------------------|--
D|--0--0--5--5--0--3--3--8--8/10---|--0--0--5--5--0--3--3--10-10/10---|--
A|--0--0--5--5--0--3--3--8--8/10---|--0--0--5--5--0--3--3--8--8-/10---|--
D|--0--0--5--5--0--3--3--8--8/10---|--0--0--5--5--0--3--3--8--8-/10---|--

E|-----------------|-----------------|-----------------|--------------------|--
B|--5--------------|--5--------------|--5--------------|--5-----------------|--
G|-----7-----5-----|-----7-----5--7--|-----7-----5-----|-----7-----5--7-----|--
D|--------7-----7--|--------7--------|--------7-----7--|--------7--------7--|--
A|-----------------|-----------------|-----------------|--------------------|--
D|-----------------|-----------------|-----------------|--------------------|--












e|-------------------------------------------|
b|-------------------------------------------|
g|-------------------------------------------|
d|-------------------------------------------|
a|-------------------------------------------|
e|-------------------------------------------|


Login to Edit
Edit
YouTube
Video
View Sheet Music
Sheet
Music
Print
Speed:
Play Intro (login for the full song)
Play
Intro
Sustain:
Download midi (intro) ...

 Rate:
5 star
4 star
3 star
2 star
1 star
 

Comments (0)
 

No comments yet...

Comment on this tab   -   Unhelpful comments are exterminated.
  Your Guest Name:
      [Member Login]
  Comments:
 

Don't understand the tab?
See "How to Read Guitar Tabs".
Supported tags:
<i>italics</i>
<b>bold</b>
<u>underline</u>
<tab>tab lines</tab>
  Are you a spam robot?

If not, solve the equation:




[431 TabNabbers online]
©2020 TabNabber.com - Musician Supported Contact us Advertising Merchandise Privacy Policy Terms of Use facebook Twitter