TabNabber Tabs   Musician Supported
  Music Tabs
Espa˝ol English
Franšais Русский
Artist: # A B C D E F G H I J K L M N O P Q R S T U V W X Y Z
guitar

Guitar Tab, Chords



(0 from 0 votes)
2,083 Views, Last Update 1 year ago
by: Anonymous
guest
[Guest]
eb|---------------------------------------------------
Bb|--0h2-0h2-0h2-0h2-0h2-0h2-0h2-0h2-0h2-0h2-0h2-0h2--
Gb|-----1---1-------1---1-------1---1-------1---1-----
Db|---------------------------------------------------
Ab|--4-----------4-----------4-----------4------------
Eb|---------------------------------------------------

eb|---------------------------------------------------------------------------|
Bb|--0h2-0h2-0h2-0h2-0h2-0h2-0h2-0h2-0h2-0h2-0h2-0h2--------------------------|
Gb|-----1---1-------1---1-------1---1-------1---1-----------------------------|
Db|---------------------------------------------------------------------------|
Ab|--0-----------2-----------0-----------2------------------------------------|
Eb|---------------------------------------------------------------------------|


Login to Edit
Edit
YouTube
Video
View Sheet Music
Sheet
Music
Print
Speed:
Play Intro (login for the full song)
Play
Intro
Sustain:
Download midi (intro) ...

 Rate:
5 star
4 star
3 star
2 star
1 star
 

Comments (0)
 

No comments yet...

Comment on this tab   -   Unhelpful comments are exterminated.
  Your Guest Name:
      [Member Login]
  Comments:
 

Don't understand the tab?
See "How to Read Guitar Tabs".
Supported tags:
<i>italics</i>
<b>bold</b>
<u>underline</u>
<tab>tab lines</tab>
  Are you a spam robot?

If not, solve the equation:




[392 TabNabbers online]
©2020 TabNabber.com - Musician Supported Contact us Advertising Merchandise Privacy Policy Terms of Use facebook Twitter