TabNabber Tabs   Musician Supported
  Music Tabs
Espa˝ol English
Franšais Русский
Artist: # A B C D E F G H I J K L M N O P Q R S T U V W X Y Z
guitar

Guitar Tab, Chords



(4.8 from 4 votes)
12,462 Views, Last Update 12 years ago
by: Anonymous
guest
[Guest]
Intro: 

e|----------------------------------------------------| 
B|----------------------------------------------------| 
G|----------------------------------------------------| 
D|--------4-----------6-------------------------------| 
A|--2--2-----2h4-4-4---------------6-----4-----6--4---|  
E|-----------------------0h3--4-4-----4-----4---------| 
(x2)
Verse 1: 

e|----------------------------------------------------| 
B|----------------------------------------------------| 
G|----------------------------------------------------| 
D|--------4-----------6-------------------------------| 
A|--2--2-----2h4-4-4---------------6-----4-----6--4---|  
E|-----------------------0h3--4-4-----4-----4---------| 
(x3)
Chorus 1: 

Guitar 1: 

e|----------------------------------------------------| 
B|----------------------------------------------------| 
G|----------------------------------------------------| 
D|--------4-----------6-------------------------------| 
A|--2--2-----2h4-4-4---------------6-----4-----6--4---|  
E|-----------------------0h3--4-4-----4-----4---------| 
(x2)
Guitar 2: 

e|----------------------------------------------------| 
B|----------------------------------------------------| 
G|-444x--------666x-----------------------------------| 
D|-444x--------666x--------666x--------666x-----------| 
A|-222x--------444x--------666x--------666x-----------| 
E|-------------------------444x--------444x-----------| 

Interlude: 

e|----------------------------------------------------| 
B|----------------------------------------------------| 
G|--11-11-11-11-11-11-11-11--9-9-9-9-9-9-9-9----------| 
D|--11-11-11-11-11-11-11-11--9-9-9-9-9-9-9-9----------| 
A|--9--9--9--9--9--9--9--9---7-7-7-7-7-7-7-7----------| 
E|----------------------------------------------------| 

Verse 2 listen solo piano and bateria 

Chorus 2: 

Guitar 1: 

e|----------------------------------------------------| 
B|----------------------------------------------------| 
G|----------------------------------------------------| 
D|--------4-----------6-------------------------------| 
A|--2--2-----2h4-4-4---------------6-----4-----6--4---| 
E|-----------------------0h3--4-4-----4-----4---------| 
(x4) 
Guitar 2: 

e|----------------------------------------------------| 
B|----------------------------------------------------| 
G|-444x--------666x-----------------------------------| 
D|-444x--------666x--------666x--------666x-----------| 
A|-222x--------444x--------666x--------666x-----------| 
E|-------------------------444x--------444x-----------| 
(x2) 
Bridge: 

Both guitars 

e|----------------------------------------------------| 
B|----------------------------------------------------| 
G|-44444444---66666666--------------------------------| 
D|-44444444---66666666---6666666666666666-------------| 
A|-22222222---44444444---6666666666666666-------------| 
E|-----------------------4444444444444444-------------| 
(x4) 
Listen to the single voice saying: "in the end" (x4) 

Finish bridge with solo guitar 1: 

e|----------------------------------------------------| 
B|-12-12-11-9-7--12-12-11-9-7--12-12-11-9-7-9-9~------| 
G|----------------------------------------------------| 
D|----------------------------------------------------| 
A|----------------------------------------------------| 
E|----------------------------------------------------| 
(x2) 
Chorus 3: 

Guitar 1: 

e|----------------------------------------------------| 
B|----------------------------------------------------| 
G|----------------------------------------------------| 
D|--------4-----------6-------------------------------| 
A|--2--2-----2h4-4-4---------------6-----4-----6--4---| 
E|-----------------------0h3--4-4-----4-----4---------| 
(x5) 
Guitar 2: 

e|----------------------------------------------------| 
B|----------------------------------------------------| 
G|-444x--------666x-----------------------------------| 
D|-444x--------666x--------666x--------666x-----------| 
A|-222x--------444x--------666x--------666x-----------| 
E|-------------------------444x--------444x-----------| 
(x2) 
Song ends with the phrase: "this are the lies I have created" 

Lyrics: 

"I´ve been thinking of everything 
I used to want to be 
I´ve been thinking of everything 
Of me, of you and me 

This is the story of my life 
These are the lies I have created 

I´m in the middle of nothing 
And it´s where I want to be 
I´m at the bottom of everything 
And I finally start to leave 

This is the story of my life 
These are the lies I have created 
I created 

And I swear to god 
I´ve found myself 
In the end 

In the end 

This is the story of my life 
These are the lies I have created"


Login to Edit
Edit
YouTube
Video
View Sheet Music
Sheet
Music
Print
Speed:
Play Intro (login for the full song)
Play
Intro
Sustain:
Download midi (intro) ...

4 Votes
5 star: 75%  (3)
4 star: 25%  (1)
3 star:  (0)
2 star:  (0)
1 star:  (0)
0 star:  (0)
 Rate:
5 star
4 star
3 star
2 star
1 star
 

Comments (0)
 

No comments yet...

Comment on this tab   -   Unhelpful comments are exterminated.
  Your Guest Name:
      [Member Login]
  Comments:
 

Don't understand the tab?
See "How to Read Guitar Tabs".
Supported tags:
<i>italics</i>
<b>bold</b>
<u>underline</u>
<tab>tab lines</tab>
  Are you a spam robot?

If not, solve the equation:




[531 TabNabbers online]
©2020 TabNabber.com - Musician Supported Contact us Advertising Merchandise Privacy Policy Terms of Use facebook Twitter