TabNabber Tabs   Musician Supported
  Music Tabs
Espa˝ol English
Franšais Русский
Artist: # A B C D E F G H I J K L M N O P Q R S T U V W X Y Z
bass

Bass Guitar Tab, Chords



(0 from 0 votes)
2,624 Views, Last Update 9 months ago
by: Muchacho


Tab Master
[Tab Master]
e|-----------------------------------------------------------------|
b|-----------------------------------------------------------------|
g|-----------------------------------------------------------------|
d|-------------------------------------------------------0---0-----|
a|-----------------------10--10--------4-------4-------------------|
e|-1---1-1---1-1-0-3-3/--------10\-2-----2---2---0-1-1---------3-4-|

e|-----------------------------------------------------------------|
b|-----------------------------------------------------------------|
g|-----------------------------------------------------------------|
d|-----5-----7-----5-----7-------------5-----7-----5-----7-7-------|
a|-0-----0-0---0-0---0-0-----------0-----0-0---0-0---0-0-----------|
e|---------------------------0-3-4---------------------------0-3-4-|

e|-----------------------------------------------------------------|
b|-----------------------------------------------------------------|
g|-----------------------------------------------------------------|
d|-----5-----7-----5-----7-----------------------------------------|
a|-0-----0-0---0-0---0-0-----0-5-4-3-----3-----3-4-5-0-------------|
e|-------------------------------------------3-----------3---2---0-|

e|-----------------------------------------------------------------|
b|-----------------------------------------------------------------|
g|-----------------------------6-6-|
d|-----5-----7-----5-----7-----7-7-|
a|-0-----0-0---0-0---0-0-----0-----|
e|---------------------------------|

d|-----------------------------------------------------------------|
b|-----------------------------------------------------------------|
g|---------------------------------|
d|-----5-----7-----5-----7---------|
a|-0-----0-0---0-0---0-0-----------|
e|---------------------------0-3-4-|

e|-----------------------------------------------------------------|
b|-----------------------------------------------------------------|
g|-----------------------------------------------------------------|
d|-----5-----7-----5-----7-----------------------------------------|
a|-0-----0-0---0-0---0-0-----0-5-4-3---------3---3-5-0-------------|
e|---------------------------------------------3---------3---2---0-|

e|-----------------------------------------------------------------|
b|-----------------------------------------------------------------|
g|-----------------------------------------------------------------|
d|-------------------------------------------------------0---0-----|
a|-----5-------5---------10--10--------4-------4-------------------|
e|-1-----1---1---1-3-3/--------10\-2-----2---2---0-1-1---------3-4-|

e|-----------------------------------------------------------------|
b|-----------------------------------------------------------------|
g|-----------------------------------------------------------------|
d|-----5-----7-----5-----7-------------5-----7-----5-----7-7-------|
a|-0-----0-0---0-0---0-0-----------0-----0-0---0-0---0-0-----------|
e|---------------------------0-3-4---------------------------0-3-4-|

e|-----------------------------------------------------------------|
b|-----------------------------------------------------------------|
g|-----------------------------------------------------------------|
d|-----5-----7-----5-----7---0-2-0---------------------------------|
a|-0-----0-0---0-0---0-0-----------3-----3-----3-4-5-0-------------|
e|-------------------------------------------3-----------3---2---0-|

e|-----------------------------------------------------------------|
b|-----------------------------------------------------------------|
g|-------------------------------------------------------------6-6-|
d|-----5-----7-----5-----7-------------5-----7-----5-----7-----7-7-|
a|-0-----0-0---0-0---0-0-----------0-----0-0---0-0---0-0-----0-----|
e|---------------------------0-3-4---------------------------------|

e|-----------------------------------------------------------------|
b|-----------------------------------------------------------------|
g|-----------------------------------------------------------------|
d|-----5-----7-----5-----7-----------------------------------------|
a|-0-----0-0---0-0---0-0-----0-5-4-3-----3---3---3-5-0-------------|
e|---------------------------------------------3---------3---2---0-|

e|-----------------------------------------------------------------|
b|-----------------------------------------------------------------|
g|-----------------------------------------------------------------|
d|-------------------------------------------------------0---0-----|
a|-----5-------5---------10--10--------4-------4-------------------|
e|-1-----1---1---1-3-3/--------10\-2-----2---2---0-1-1---------3-4-|

e|-----------------------------------------------------------------|
b|-----------------------------------------------------------------|
g|-------------------------------------------------------------6-6-|
d|-----5-----7-----5-----7-------------5-----7-----5-----7-----7-7-|
a|-0-----0-0---0-0---0-0-----------0-----0-0---0-0---0-0-----0-----|
e|---------------------------0-3-4---------------------------------|

e|-----------------------------------------------------------------|
b|-----------------------------------------------------------------|
g|-----------------------------------------------------------------|
d|-----5-----7-----5-----7---7-0-----------------------------4---4/|
a|-0-----0-0---0-0---0-0---------4-3-----3-----3---5-----5-----5-5/|
e|-------------------------------------------3---3-----------------|

e|-----------------------------------------------------------------|
b|-----------------------------------------------------------------|
g|-----------------------------6-6---------------------------------|
d|-----5-----7-----5-----7-----7-7-----5-----7-----5-----7---------|
a|-0-----0-0---0-0---0-0-----0-----0-----0-0---0-0---0-0-----------|
e|-----------------------------------------------------------0-3-4-|

e|-----------------------------------------------------------------|
b|-----------------------------------------------------------------|
g|-----------------------------------------------------------------|
d|-----5-----7-----5-----7---7-0-----------------------------------|
a|-0-----0-0---0-0---0-0---------4-3-----3-----3-4-5---0-----------|
e|-------------------------------------------3-----------3---2---0-|

e|-----------------------------------------------------------------|
b|-----------------------------------------------------------------|
g|-----------------------------------------------------------------|
d|-------------------------------------------------------0---0-----|
a|-----5-------5---------10--10--------4-------4-------------------|
e|-1-----1---1---1-3-3/--------10\-2-----2---2---0-1-1---------3-4-|


Login to Edit
Edit
YouTube
Video
View Sheet Music
Sheet
Music
Print
Speed:
Play Intro (login for the full song)
Play
Intro
Sustain:
Download midi (intro) ...

 Rate:
5 star
4 star
3 star
2 star
1 star
 

Comments (0)
 

No comments yet...

Comment on this tab   -   Unhelpful comments are exterminated.
  Your Guest Name:
      [Member Login]
  Comments:
 

Don't understand the tab?
See "How to Read Guitar Tabs".
Supported tags:
<i>italics</i>
<b>bold</b>
<u>underline</u>
<tab>tab lines</tab>
  Are you a spam robot?

If not, solve the equation:




[464 TabNabbers online]
©2020 TabNabber.com - Musician Supported Contact us Advertising Merchandise Privacy Policy Terms of Use facebook Twitter