TabNabber Tabs   Musician Supported
  Music Tabs
Espa˝ol English
Franšais Русский
Artist: # A B C D E F G H I J K L M N O P Q R S T U V W X Y Z
guitar

Guitar Tab, Chords



(0 from 0 votes)
1,199 Views, Last Update 7 months ago
by: Anonymous
guest
[Guest]
Eb|-------------------|-17----17-19-19b21r19p17-------|
Bb|----------------14-|----18-------------------18-17-|
Gb|-----------14h16---|-------------------------------|
Db|------14h16--------|-------------------------------|
Ab|-14h16-------------|-------------------------------|
Eb|-------------------|-------------------------------|

Eb|-------------------------------------------------------|
Bb|-------------------------------------------14b15-14----|
Gb|-------14-------16b18-16-14-------14----------------14-|
Db|-14h16----16p14-------------14h16----16p14-------------|
Ab|-------------------------------------------------------|
Eb|-------------------------------------------------------|

Eb|-----------------------14-14-16-16-17-17-19-19-19-19-x-17-17-|
Bb|-------------------------------------------------------------|
Gb|-11b13-11-9------------11-11-13-13-14-14-16-16-16-16-x-14-14-|
Db|------------12-11h12-7---------------------------------------|
Ab|-------------------------------------------------------------|
Eb|-------------------------------------------------------------|


Login to Edit
Edit
YouTube
Video
View Sheet Music
Sheet
Music
Print
Speed:
Play Intro (login for the full song)
Play
Intro
Sustain:
Download midi (intro) ...

 Rate:
5 star
4 star
3 star
2 star
1 star
 

Comments (0)
 

No comments yet...

Comment on this tab   -   Unhelpful comments are exterminated.
  Your Guest Name:
      [Member Login]
  Comments:
 

Don't understand the tab?
See "How to Read Guitar Tabs".
Supported tags:
<i>italics</i>
<b>bold</b>
<u>underline</u>
<tab>tab lines</tab>
  Are you a spam robot?

If not, solve the equation:




[139 TabNabbers online]
©2020 TabNabber.com - Musician Supported Contact us Advertising Merchandise Privacy Policy Terms of Use facebook Twitter