TabNabber Tabs   Musician Supported
  Music Tabs
Espa˝ol English
Franšais Русский
guitar

Guitar Tab, Chords

Featured! Featured! Featured!

(5 from 1 votes)
4,150 Views, Last Update 2 years ago
by: Michael Jackson
guest
[Guest]
e|----------------|----------------|----------------|----------------|
B|--0-------0-----|--1-------1-----|--1-------1-----|----0-----0-----|
G|------0-------0-|------0-------0-|------0-------0-|--------------0-|
D|----0-------0---|----2-------2---|----2-------2---|----0-------0---|
A|----------------|----------------|----------------|----------------|
E|3---+---3---+---|3---+---3---+---|3---+---3---+---|3---+---3---+---|
 

e|----------------|----------0-----|----------------|--0-------0-----|
B|--0-------0-----|--1-----------1-|--1-------1-----|------1-------1-|
G|------0-------0-|------2-----2---|------0-------0-|----0-------0---|
D|----0-------0---|----2-----------|----0-------0---|----------------|
A|----------------|0-------0-------|----------------|----------------|
E|3---+---3---+---|+---+---+---+---|3---+---3---+---|2---+---2---+---|
 

e|--2-------2-----|--2-------2-----|----------------|----------------|
B|------1-------1-|------1-------1-|--3-------3-----|--3-------3-----|
G|----2-------2---|----2-------2---|------0-------0-|------2-------2-|
D|----------------|----------------|----0-------0---|----0-------0---|
A|----------------|----------------|----------------|----------------|
E|2---+---2---+---|2---+---2---+---|3---+---3---+---|2---+---2---+---|
 

e|----------------|----------------|----------------|----------------|
B|--3-------------|--1-------1-----|--1-------1-----|--1-------1-----|
G|------0---------|------0-------0-|------2-------2-|------0-------0-|
D|----0-----------|----2-------2---|----2-------2---|----0-------0---|
A|--------0---2---|3---------------|0-------0-------|----------------|
E|3---+---+---+---|+---+---3---+---|+---+---+---+---|3---+---3---+---|
 

e|--2-------2-----|-----H-------P--|
B|------3-------3-|----0-1---1---0-|
G|----2-------2---|----------------|
D|0-------0-------|----0-2-----2-0-|
A|----------------|----------------|
E|+---+---+---+---|3---+---+---+---|


Login to Edit
Edit
YouTube
Video
View Sheet Music
Sheet
Music
Print
Download Midi
Speed:
Download Midi Intro (login for the full song)
Get
Intro
Sustain:
alt 1     alt 2

1 Votes
5 star: 100%  (1)
4 star:  (0)
3 star:  (0)
2 star:  (0)
1 star:  (0)
0 star:  (0)
 Rate:
5 star
4 star
3 star
2 star
1 star
 

Comments (0)
 

No comments yet...

Comment on this tab   -   Unhelpful comments are exterminated.
  Your Guest Name:
      [Member Login]
  Comments:
 

Don't understand the tab?
See "How to Read Guitar Tabs".
Supported tags:
<i>italics</i>
<b>bold</b>
<u>underline</u>
<tab>tab lines</tab>
  Are you a spam robot?

If not, solve the equation:




[43633 TabNabbers online]


©2022 TabNabber.com - Musician Supported Contact us Advertising Merchandise Privacy Policy Terms of Use facebook Twitter