TabNabber Tabs   Musician Supported
  Music Tabs
Espa˝ol English
Franšais Русский
Artist: # A B C D E F G H I J K L M N O P Q R S T U V W X Y Z
guitar

Guitar Tab, Chords



(0 from 0 votes)
652 Views, Last Update 4 months ago
by: Brett Rumpel
guest
[Guest]
e|---------------------------------------------------------------------------|
B|---------------------------------------------------------------------------|
G|-----------------8h10p8----------------------------------------------------|
D|------8h10-------------10-----(10)-(10)--8h10-(10)(10)--10/12--13---10p8---|
A|--8h10-----3-(3)-----------------------------------------------------------|
E|---------------------------------------------------------------------------|
 
e|---------------------------------------------------------------------------|
B|----------------------------------11--8------------------------------------|
G|----------------------8h10p8-------------10--8b10r8-8----------------------|
D|---------------8h10---------10---------------------------------------13----|
A|--(10)(10)-8h10-----3-----------------------------------11---11-11/13------|
E|---------------------------------------------------------------------------|


Login to Edit
Edit
YouTube
Video
View Sheet Music
Sheet
Music
Print
Speed:
Play Intro (login for the full song)
Play
Intro
Sustain:
Download midi (intro) ...

 Rate:
5 star
4 star
3 star
2 star
1 star
 

Comments (0)
 

No comments yet...

Comment on this tab   -   Unhelpful comments are exterminated.
  Your Guest Name:
      [Member Login]
  Comments:
 

Don't understand the tab?
See "How to Read Guitar Tabs".
Supported tags:
<i>italics</i>
<b>bold</b>
<u>underline</u>
<tab>tab lines</tab>
  Are you a spam robot?

If not, solve the equation:




[846 TabNabbers online]
©2020 TabNabber.com - Musician Supported Contact us Advertising Merchandise Privacy Policy Terms of Use facebook Twitter