TabNabber Tabs   Musician Supported
  Music Tabs
Espa˝ol English
Franšais Русский
Artist: # A B C D E F G H I J K L M N O P Q R S T U V W X Y Z
guitar

Guitar Tab, Chords



(0 from 0 votes)
593 Views, Last Update 3 months ago
by: Brett Rumpel
guest
[Guest]
e|3---------3---------3---------3------------|
b|-------0---------0---------3-------3-------|
g|-----0---------2---------0-----------2-----|
d|---0---------0---------0---------0---------|
a|-------------------------------------------|
e|0---------0---------0---------0------------|

e|6---------5---------3---------3------------|
b|-------0---------0---------3---------3-----|
g|-----0---------2---------0---------2-------|
d|---0---------0---------0---------0---------|
a|-------------------------------------------|
e|3---------2---------0---------0------------|


Login to Edit
Edit
YouTube
Video
View Sheet Music
Sheet
Music
Print
Speed:
Play Intro (login for the full song)
Play
Intro
Sustain:
Download midi (intro) ...

 Rate:
5 star
4 star
3 star
2 star
1 star
 

Comments (0)
 

No comments yet...

Comment on this tab   -   Unhelpful comments are exterminated.
  Your Guest Name:
      [Member Login]
  Comments:
 

Don't understand the tab?
See "How to Read Guitar Tabs".
Supported tags:
<i>italics</i>
<b>bold</b>
<u>underline</u>
<tab>tab lines</tab>
  Are you a spam robot?

If not, solve the equation:




[1644 TabNabbers online]
©2020 TabNabber.com - Musician Supported Contact us Advertising Merchandise Privacy Policy Terms of Use facebook Twitter