TabNabber Tabs   Musician Supported
  Music Tabs
Espa˝ol English
Franšais Русский
Artist: # A B C D E F G H I J K L M N O P Q R S T U V W X Y Z
guitar

Guitar Tab, Chords



(0 from 0 votes)
308 Views, Last Update 21 days ago
by: Mike O
guest
[Guest]
e|---------------------0--0-----------0--------------------------------------------------------------0h3-----0--0-----
B|-------1--1h3-1h3--1--1-----------------3----1----------------1h3----3-----------0h1---1h3-------------1--1---------
G|------------------------------2------------------------2------------------------------------------------------------
D|--------------------------------------------------------------------------------------------------------------------
A|-----------------------------------------------------------------2------2-----------------------------------0--0----
E|---------------------1--1-----------1-------------------------------------------------------------------------------

e|--------------0------------------------------------------------3--3--3--3s5-----0--------------------------------------------0h1--0-------------------0---------------------|
B|-------------------3---1-----------1h3--3--3s5--3--1---------------------------1------3------1------3----------1-1----3------------3--1---3---1-----------------------------|
G|--------2------------------2-----------------------------------------------------------------------------------------------------------------------------------0------------|
D|----------------------------------------------------------------------------------------------------------------------------------------------------------------------------|
A|--------------0-------------------------------------------------------------------------------------------------------------------------------------------------------------|
E|------------------------------------3----3---------------------------------------1---------------------1--------------------------------------3---------3-------------3-----|

e|------------3--3--3---1p0-------------------0--------------------------0h1-0-----------------0--------------------------------------------------------------------------------------|
B|-------1----------------------3--1h3--3----------3-------1--1--1--3-------------3--1----3---------3--------------------------------------------------------------------------------|
G|-----------------------------------------------------------------------------------------------------------------0--------------------------------------------------------------------|
D|--------------------------------------------------------------------------------------------------------------------------------------------------------------------------------------|
A|---------------------------------0---------------0-----------------------------------------------------------------------------------------------------------------------------------|
E|--------------------------------------------------------------------------------------------3--------------3--------------------------------------------------------------------------|


Login to Edit
Edit
YouTube
Video
View Sheet Music
Sheet
Music
Print
Speed:
Play Intro (login for the full song)
Play
Intro
Sustain:
Download midi (intro) ...

 Rate:
5 star
4 star
3 star
2 star
1 star
 

Comments (0)
 

No comments yet...

Comment on this tab   -   Unhelpful comments are exterminated.
  Your Guest Name:
      [Member Login]
  Comments:
 

Don't understand the tab?
See "How to Read Guitar Tabs".
Supported tags:
<i>italics</i>
<b>bold</b>
<u>underline</u>
<tab>tab lines</tab>
  Are you a spam robot?

If not, solve the equation:




[717 TabNabbers online]
©2020 TabNabber.com - Musician Supported Contact us Advertising Merchandise Privacy Policy Terms of Use facebook Twitter