TabNabber Tabs   Musician Supported
  Music Tabs
Espa˝ol English
Franšais Русский
Artist: # A B C D E F G H I J K L M N O P Q R S T U V W X Y Z
guitar

Guitar Tab, Chords



(0 from 0 votes)
71 Views, Last Update 15 days ago new
by: Anonymous
guest
[Guest]
e|----------------|
b|--12---12---12--|
g|9----9----9----9|
d|----------------|
a|----------------|
e|----------------|
 
e|--------12--------|
b|9-12-14----9-12-14|
g|------------------|
d|------------------|
a|------------------|
e|------------------|
 
e|---16-14------|
b14-------16-14|
g|--------------|
d|--------------|
a|--------------|
e|--------------|
 
e|---14-------16-14------|
b|14----16-14-------16-14|
g|-----------------------|
d|-----------------------|
a|-----------------------|
e|-----------------------|
 
e|---14----------------|
b|14----16-14-12-11-7-9|
g|---------------------|
d|---------------------|
a|---------------------|
e|---------------------|
 
e|------------------|
b|9-14-12-11-9-11-12|
g|------------------|
d|------------------|
a|------------------|
e|------------------|


Login to Edit
Edit
YouTube
Video
View Sheet Music
Sheet
Music
Print
Speed:
Play Intro (login for the full song)
Play
Intro
Sustain:
Download midi (intro) ...

 Rate:
5 star
4 star
3 star
2 star
1 star
 

Comments (0)
 

No comments yet...

Comment on this tab   -   Unhelpful comments are exterminated.
  Your Guest Name:
      [Member Login]
  Comments:
 

Don't understand the tab?
See "How to Read Guitar Tabs".
Supported tags:
<i>italics</i>
<b>bold</b>
<u>underline</u>
<tab>tab lines</tab>
  Are you a spam robot?

If not, solve the equation:




[101 TabNabbers online]
©2020 TabNabber.com - Musician Supported Contact us Advertising Merchandise Privacy Policy Terms of Use facebook Twitter