TabNabber Tabs   Musician Supported
  Music Tabs
Espa˝ol English
Franšais Русский
Artist: # A B C D E F G H I J K L M N O P Q R S T U V W X Y Z
guitar

Guitar Tab, Chords



(0 from 0 votes)
93 Views, Last Update 8 days ago new
by: jo
guest
[Guest]
e|------------------------------|------------------------------|
B|------------------------------|------------------------------| 
G|---7--6h7--7/9--7h9--9/11--14-|---7--6h7--7/9--7h9--9/11--14-|  
D|-0----------------------------|-0----------------------------|   
A|------------------------------|------------------------------|    
E|------------------------------|------------------------------|     
                                                                     
e|------------------------------|------------------------------|    
B|------------------------------|------------------------------|   
G|---16--14-11~11~9h11-11/12\11~|---11--9--6--6h7--7~~~~-------|  
D|-0----------------------------|-0----------------------------| 
A|------------------------------|------------------------------|
E|------------------------------|------------------------------|

e|------------------------------|------------------------------|
B|------------------------------|------------------------------| 
G|---7--6h7--7/9--7h9--9/11--14-|---7--6h7--7/9--7h9--9/11--14-|  
D|-0----------------------------|-0----------------------------|   
A|------------------------------|------------------------------|    
E|------------------------------|------------------------------|     
                                                                     
e|------------------------------|------------------------------|    
B|------------------------------|------------------------------|   
G|---16--14-11~11~9h11-11/12\11~|---11--9--6--6h7--7~~~~-------|  
D|-0----------------------------|-0----------------------------| 
A|------------------------------|------------------------------|
E|------------------------------|------------------------------|
 

e|-------------|-------------|-------------|---------------|
B|---7-----7---|---7-----7---|---7-----7---|---7-----7h8p7-|
G|-----7-----7-|-----7-----7-|-----7-----7-|-----7---------|
D|-0-----0-----|-0-----0-----|-0-----0-----|-0-----0-------|
A|-------------|-------------|-------------|---------------|
E|-------------|-------------|-------------|---------------|

e|-------------|-------------|-------------|---------------|
B|---7-----7---|---7-----7---|---7-----7---|---7-----7h8p7-|
G|-----7-----7-|-----7-----7-|-----7-----7-|-----7---------|
D|-0-----0-----|-0-----0-----|-0-----0-----|-0-----0-------|
A|-------------|-------------|-------------|---------------|
E|-------------|-------------|-------------|---------------|

e|-------------|-------------|-------------|---------------|
B|---7-----7---|---7-----7---|---7-----7---|---7-----7h8p7-|
G|-----7-----7-|-----7-----7-|-----7-----7-|-----7---------|
D|-0-----0-----|-0-----0-----|-0-----0-----|-0-----0-------|
A|-------------|-------------|-------------|---------------|
E|-------------|-------------|-------------|---------------|
 
e|-------------|-------------|-------------|-------------|
B|---7-----7---|---7-----7---|---7-----7---|---7-----7---|
G|-----7-----7-|-----7-----7-|-----7-----7-|-----7-----7-|
D|-0-----0-----|-0-----0-----|-0-----0-----|-0-----0-----|
A|-------------|-------------|-------------|-------------|
E|-------------|-------------|-------------|-------------|
 

e|-------------|-------------|-------------|-------------|
B|---7-----7---|---7-----7---|---5-----5---|---5-----5---| 
G|-----7-----7-|-----7-----7-|-----5-----5-|-----5-----5-|  
D|-0-----0-----|-0-----0-----|-0-----0-----|-0-----0-----|   
A|-------------|-------------|-------------|-------------|    
E|-------------|-------------|-------------|-------------|     
                                                               
e|-------------|-------------|-------------|-------------|     
B|----------5--|----------8--|---7-----7---|---7-----7---|    
G|-------5-----|-------0-----|-----7-----7-|-----7-----7-|  
D|-0-----------|-0-----------|-0-----0-----|-0-----0-----|  
A|-------------|-------------|-------------|-------------|
E|-------------|-------------|-------------|-------------|
 
e|-------------|-------------|-------------|-------------|
B|---7-----7---|---7-----7---|---5-----5---|---5-----5---| 
G|-----7-----7-|-----7-----7-|-----5-----5-|-----5-----5-|  
D|-0-----0-----|-0-----0-----|-0-----0-----|-0-----0-----|   
A|-------------|-------------|-------------|-------------|    
E|-------------|-------------|-------------|-------------|     
                                                               
e|-------------|-------------|-------------|-------------|     
B|----------5--|----------8--|---7-----7---|---7-----7---|    
G|-------5-----|-------0-----|-----7-----7-|-----7-----7-|  
D|-0-----------|-0-----------|-0-----0-----|-0-----0-----|  
A|-------------|-------------|-------------|-------------|
E|-------------|-------------|-------------|-------------|
 
e|-------------|-------------|-------------|-------------|
B|---7-----7---|---7-----7---|---5-----5---|---5-----5---| 
G|-----7-----7-|-----7-----7-|-----5-----5-|-----5-----5-|  
D|-0-----0-----|-0-----0-----|-0-----0-----|-0-----0-----|   
A|-------------|-------------|-------------|-------------|    
E|-------------|-------------|-------------|-------------|     
                                                               
e|-------------|-------------|-------------|-------------|     
B|----------5--|----------8--|---7-----7---|---7-----7---|    
G|-------5-----|-------0-----|-----7-----7-|-----7-----7-|  
D|-0-----------|-0-----------|-0-----0-----|-0-----0-----|  
A|-------------|-------------|-------------|-------------|
E|-------------|-------------|-------------|-------------|
 
e|-------------|-------------|-------------|-------------|
B|---7-----7---|---7-----7---|---5-----5---|---5-----5---| 
G|-----7-----7-|-----7-----7-|-----5-----5-|-----5-----5-|  
D|-0-----0-----|-0-----0-----|-0-----0-----|-0-----0-----|   
A|-------------|-------------|-------------|-------------|    
E|-------------|-------------|-------------|-------------|     
                                                               
e|-------------|-------------|-------------|-------------|     
B|----------5--|----------8--|---7-----7---|---7-----7---|    
G|-------5-----|-------0-----|-----7-----7-|-----7-----7-|  
D|-0-----------|-0-----------|-0-----0-----|-0-----0-----|  
A|-------------|-------------|-------------|-------------|
E|-------------|-------------|-------------|-------------|
 

e|-------------|-------------|-------------|---------------|
B|---7-----7---|---7-----7---|---7-----7---|---7-----7h8p7-|
G|-----7-----7-|-----7-----7-|-----7-----7-|-----7---------|
D|-0-----0-----|-0-----0-----|-0-----0-----|-0-----0-------|
A|-------------|-------------|-------------|---------------|
E|-------------|-------------|-------------|---------------|
 

e|------------------------------|------------------------------|
B|------------------------------|------------------------------| 
G|---7--6h7--7/9--7h9--9/11--14-|---7--6h7--7/9--7h9--9/11--14-|  
D|-0----------------------------|-0----------------------------|   
A|------------------------------|------------------------------|   
E|------------------------------|------------------------------|     
                                                                      
e|------------------------------|------------------------------|     
B|------------------------------|------------------------------|    
G|---16--14-11~11~9h11-11/12\11~|---11--9--6--6h7--7~~~~-------|   
D|-0----------------------------|-0----------------------------|  
A|------------------------------|------------------------------| 
E|------------------------------|------------------------------|

e|------------------------------|------------------------------|
B|------------------------------|------------------------------| 
G|---7--6h7--7/9--7h9--9/11--14-|---7--6h7--7/9--7h9--9/11--14-|  
D|-0----------------------------|-0----------------------------|   
A|------------------------------|------------------------------|   
E|------------------------------|------------------------------|     
                                                                      
e|------------------------------|------------------------------|     
B|------------------------------|------------------------------|    
G|---16--14-11~11~9h11-11/12\11~|---11--9--6--6h7--7~~~~-------|   
D|-0----------------------------|-0----------------------------|  
A|------------------------------|------------------------------| 
E|------------------------------|------------------------------|
 

e|-------------|-------------|-------------|---------------|
B|---7-----7---|---7-----7---|---7-----7---|---7-----7h8p7-|
G|-----7-----7-|-----7-----7-|-----7-----7-|-----7---------|
D|-0-----0-----|-0-----0-----|-0-----0-----|-0-----0-------|
A|-------------|-------------|-------------|---------------|
E|-------------|-------------|-------------|---------------|
 
e|-------------|-------------|-------------|-------------|
B|---7-----7---|---7-----7---|---7-----7---|---7-----7---|
G|-----7-----7-|-----7-----7-|-----7-----7-|-----7-----7-|
D|-0-----0-----|-0-----0-----|-0-----0-----|-0-----0-----|
A|-------------|-------------|-------------|-------------|
E|-------------|-------------|-------------|-------------| 
 

e|-------------|-------------|-------------|-------------|
B|---7-----7---|---7-----7---|---5-----5---|---5-----5---| 
G|-----7-----7-|-----7-----7-|-----5-----5-|-----5-----5-|  
D|-0-----0-----|-0-----0-----|-0-----0-----|-0-----0-----|   
A|-------------|-------------|-------------|-------------|    
E|-------------|-------------|-------------|-------------|     
                                                               
e|-------------|-------------|-------------|-------------|     
B|----------5--|----------8--|---7-----7---|---7-----7---|    
G|-------5-----|-------0-----|-----7-----7-|-----7-----7-|   
D|-0-----------|-0-----------|-0-----0-----|-0-----0-----|  
A|-------------|-------------|-------------|-------------| 
E|-------------|-------------|-------------|-------------|
e|-------------|-------------|-------------|-------------|
B|---7-----7---|---7-----7---|---5-----5---|---5-----5---| 
G|-----7-----7-|-----7-----7-|-----5-----5-|-----5-----5-|  
D|-0-----0-----|-0-----0-----|-0-----0-----|-0-----0-----|   
A|-------------|-------------|-------------|-------------|    
E|-------------|-------------|-------------|-------------|     
                                                               
e|-------------|-------------|-------------|-------------|     
B|----------5--|----------8--|---7-----7---|---7-----7---|    
G|-------5-----|-------0-----|-----7-----7-|-----7-----7-|   
D|-0-----------|-0-----------|-0-----0-----|-0-----0-----|  
A|-------------|-------------|-------------|-------------| 
E|-------------|-------------|-------------|-------------|
e|-------------|-------------|-------------|-------------|
B|---7-----7---|---7-----7---|---5-----5---|---5-----5---| 
G|-----7-----7-|-----7-----7-|-----5-----5-|-----5-----5-|  
D|-0-----0-----|-0-----0-----|-0-----0-----|-0-----0-----|   
A|-------------|-------------|-------------|-------------|    
E|-------------|-------------|-------------|-------------|     
                                                               
e|-------------|-------------|-------------|-------------|     
B|----------5--|----------8--|---7-----7---|---7-----7---|    
G|-------5-----|-------0-----|-----7-----7-|-----7-----7-|   
D|-0-----------|-0-----------|-0-----0-----|-0-----0-----|  
A|-------------|-------------|-------------|-------------| 
E|-------------|-------------|-------------|-------------|
e|-------------|-------------|-------------|-------------|
B|---7-----7---|---7-----7---|---5-----5---|---5-----5---| 
G|-----7-----7-|-----7-----7-|-----5-----5-|-----5-----5-|  
D|-0-----0-----|-0-----0-----|-0-----0-----|-0-----0-----|   
A|-------------|-------------|-------------|-------------|    
E|-------------|-------------|-------------|-------------|     
                                                               
e|-------------|-------------|-------------|-------------|     
B|----------5--|----------8--|---7-----7---|---7-----7---|    
G|-------5-----|-------0-----|-----7-----7-|-----7-----7-|   
D|-0-----------|-0-----------|-0-----0-----|-0-----0-----|  
A|-------------|-------------|-------------|-------------| 
E|-------------|-------------|-------------|-------------|
 

e|-------------|-------------|-------------|-------------|
B|---7-----7---|---7-----7---|---7-----7---|---7-----7---| 
G|-----7-----7-|-----7-----7-|-----7-----7-|-----7-----7-|  
D|-0-----0-----|-0-----0-----|-0-----0-----|-0-----0-----|   
A|-------------|-------------|-------------|-------------|    
E|-------------|-------------|-------------|-------------|     
                                                               
e|-------------|-------------|-------------|-------------|     
B|---5-----5---|---5-----5---|---5-----5---|---5-----5---|    
G|-----5-----5-|-----5-----5-|-----5-----5-|-----5-----5-|   
D|-0-----0-----|-0-----0-----|-0-----0-----|-0-----0-----|  
A|-------------|-------------|-------------|-------------| 
E|-------------|-------------|-------------|-------------|
 
e|-------------|-------------|-------------|-------------|
B|---7-----7---|---7-----7---|---7-----7---|---7-----7---| 
G|-----7-----7-|-----7-----7-|-----7-----7-|-----7-----7-|  
D|-0-----0-----|-0-----0-----|-0-----0-----|-0-----0-----|   
A|-------------|-------------|-------------|-------------|    
E|-------------|-------------|-------------|-------------|     
                                                               
e|-------------|-------------|-------------|-------------|     
B|---5-----5---|---5-----5---|---5-----5---|---5-----5---|    
G|-----5-----5-|-----5-----5-|-----5-----5-|-----5-----5-|   
D|-0-----0-----|-0-----0-----|-0-----0-----|-0-----0-----|  
A|-------------|-------------|-------------|-------------| 
E|-------------|-------------|-------------|-------------|
 
e|-------------|-------------|-------------|-------------|
B|---7-----7---|---7-----7---|---7-----7---|---7-----7---| 
G|-----7-----7-|-----7-----7-|-----7-----7-|-----7-----7-|  
D|-0-----0-----|-0-----0-----|-0-----0-----|-0-----0-----|   
A|-------------|-------------|-------------|-------------|    
E|-------------|-------------|-------------|-------------|     
                                                               
e|-------------|-------------|-------------|-------------|     
B|---5-----5---|---5-----5---|---5-----5---|---5-----5---|    
G|-----5-----5-|-----5-----5-|-----5-----5-|-----5-----5-|   
D|-0-----0-----|-0-----0-----|-0-----0-----|-0-----0-----|  
A|-------------|-------------|-------------|-------------| 
E|-------------|-------------|-------------|-------------|
 
e|-------------|-------------|-------------|-------------|
B|---7-----7---|---7-----7---|---7-----7---|---7-----7---| 
G|-----7-----7-|-----7-----7-|-----7-----7-|-----7-----7-|  
D|-0-----0-----|-0-----0-----|-0-----0-----|-0-----0-----|   
A|-------------|-------------|-------------|-------------|    
E|-------------|-------------|-------------|-------------|     
                                                               
e|-------------|-------------|-------------|-------------|     
B|---5-----5---|---5-----5---|---5-----5---|---5-----5---|    
G|-----5-----5-|-----5-----5-|-----5-----5-|-----5-----5-|   
D|-0-----0-----|-0-----0-----|-0-----0-----|-0-----0-----|  
A|-------------|-------------|-------------|-------------| 
E|-------------|-------------|-------------|-------------|
 
e|-------------|-------------|-------------|-------------|
B|---7-----7---|---7-----7---|---7-----7---|---7-----7---| 
G|-----7-----7-|-----7-----7-|-----7-----7-|-----7-----7-|  
D|-0-----0-----|-0-----0-----|-0-----0-----|-0-----0-----|   
A|-------------|-------------|-------------|-------------|    
E|-------------|-------------|-------------|-------------|     
                                                               
e|-------------|-------------|-------------|-------------|     
B|---5-----5---|---5-----5---|---5-----5---|---5-----5---|    
G|-----5-----5-|-----5-----5-|-----5-----5-|-----5-----5-|   
D|-0-----0-----|-0-----0-----|-0-----0-----|-0-----0-----|  
A|-------------|-------------|-------------|-------------| 
E|-------------|-------------|-------------|-------------|
 
e|-------------|-------------|-------------|-------------|
B|---7-----7---|---7-----7---|---7-----7---|---7-----7---| 
G|-----7-----7-|-----7-----7-|-----7-----7-|-----7-----7-|  
D|-0-----0-----|-0-----0-----|-0-----0-----|-0-----0-----|   
A|-------------|-------------|-------------|-------------|    
E|-------------|-------------|-------------|-------------|     
                                                               
e|-------------|-------------|-------------|-------------|     
B|---5-----5---|---5-----5---|---5-----5---|---5-----5---|    
G|-----5-----5-|-----5-----5-|-----5-----5-|-----5-----5-|   
D|-0-----0-----|-0-----0-----|-0-----0-----|-0-----0-----|  
A|-------------|-------------|-------------|-------------| 
E|-------------|-------------|-------------|-------------|
 
e|-------------|-------------|-------------|-------------|
B|---7-----7---|---7-----7---|---7-----7---|---7-----7---| 
G|-----7-----7-|-----7-----7-|-----7-----7-|-----7-----7-|  
D|-0-----0-----|-0-----0-----|-0-----0-----|-0-----0-----|   
A|-------------|-------------|-------------|-------------|    
E|-------------|-------------|-------------|-------------|     
                                                               
e|-------------|-------------|-------------|-------------|     
B|---5-----5---|---5-----5---|---5-----5---|---5-----5---|    
G|-----5-----5-|-----5-----5-|-----5-----5-|-----5-----5-|   
D|-0-----0-----|-0-----0-----|-0-----0-----|-0-----0-----|  
A|-------------|-------------|-------------|-------------| 
E|-------------|-------------|-------------|-------------|
 
e|-------------|-------------|-------------|-------------|
B|---7-----7---|---7-----7---|---7-----7---|---7-----7---| 
G|-----7-----7-|-----7-----7-|-----7-----7-|-----7-----7-|  
D|-0-----0-----|-0-----0-----|-0-----0-----|-0-----0-----|   
A|-------------|-------------|-------------|-------------|    
E|-------------|-------------|-------------|-------------|     
                                                               
e|-------------|-------------|-------------|-------------|     
B|---5-----5---|---5-----5---|---5-----5---|---5-----5---|    
G|-----5-----5-|-----5-----5-|-----5-----5-|-----5-----5-|   
D|-0-----0-----|-0-----0-----|-0-----0-----|-0-----0-----|  
A|-------------|-------------|-------------|-------------| 
E|-------------|-------------|-------------|-------------|
 
e|-------------|-------------|-------------|-------------|
B|---7-----7---|---7-----7---|---7-----7---|---7-----7---| 
G|-----7-----7-|-----7-----7-|-----7-----7-|-----7-----7-|  
D|-0-----0-----|-0-----0-----|-0-----0-----|-0-----0-----|   
A|-------------|-------------|-------------|-------------|    
E|-------------|-------------|-------------|-------------|     
                                                               
e|-------------|-------------|-------------|-------------|     
B|---5-----5---|---5-----5---|---5-----5---|---5-----5---|    
G|-----5-----5-|-----5-----5-|-----5-----5-|-----5-----5-|   
D|-0-----0-----|-0-----0-----|-0-----0-----|-0-----0-----|  
A|-------------|-------------|-------------|-------------| 
E|-------------|-------------|-------------|-------------|
 
e|-------------|-------------|-------------|-------------|
B|---7-----7---|---7-----7---|---7-----7---|---7-----7---| 
G|-----7-----7-|-----7-----7-|-----7-----7-|-----7-----7-|  
D|-0-----0-----|-0-----0-----|-0-----0-----|-0-----0-----|   
A|-------------|-------------|-------------|-------------|    
E|-------------|-------------|-------------|-------------|     
                                                               
e|-------------|-------------|-------------|-------------|     
B|---5-----5---|---5-----5---|---5-----5---|---5-----5---|    
G|-----5-----5-|-----5-----5-|-----5-----5-|-----5-----5-|   
D|-0-----0-----|-0-----0-----|-0-----0-----|-0-----0-----|  
A|-------------|-------------|-------------|-------------| 
E|-------------|-------------|-------------|-------------|
 

e|-------------|-------------|-------------|-------------|
B|---7-----7---|-----6---8---|---7-----7---|-----2---5---|
G|-----7-----7-|-----7---9---|-----7-----7-|-----2---5---|
D|-0-----0-----|-0-----------|-0-----0-----|-0-----------| 
A|-------------|-------------|-------------|-------------|
E|-------------|-------------|-------------|-------------|

e|-------------|-------------|-------------|-------------|
B|---7-----7---|-----6---8---|---7-----7---|-----2---5---|
G|-----7-----7-|-----7---9---|-----7-----7-|-----2---5---|
D|-0-----0-----|-0-----------|-0-----0-----|-0-----------| 
A|-------------|-------------|-------------|-------------|
E|-------------|-------------|-------------|-------------|
 
e|----5-|
B|---5--|
G|--5---|
D|-0----|
A|------|
E|------|


Login to Edit
Edit
YouTube
Video
View Sheet Music
Sheet
Music
Print
Speed:
Play Intro (login for the full song)
Play
Intro
Sustain:
Download midi (intro) ...

 Rate:
5 star
4 star
3 star
2 star
1 star
 

Comments (0)
 

No comments yet...

Comment on this tab   -   Unhelpful comments are exterminated.
  Your Guest Name:
      [Member Login]
  Comments:
 

Don't understand the tab?
See "How to Read Guitar Tabs".
Supported tags:
<i>italics</i>
<b>bold</b>
<u>underline</u>
<tab>tab lines</tab>
  Are you a spam robot?

If not, solve the equation:




[160 TabNabbers online]
©2020 TabNabber.com - Musician Supported Contact us Advertising Merchandise Privacy Policy Terms of Use facebook Twitter