TabNabber Tabs   Musician Supported
  Music Tabs
Espa˝ol English
Franšais Русский
Artist: # A B C D E F G H I J K L M N O P Q R S T U V W X Y Z
guitar

Guitar Tab, Chords



(0 from 0 votes)
369 Views, Last Update 13 days ago new updated
by: Max Malarky
guest
[Guest]
E |----------------||--------------------------------|
B |1-1-0-----------|*--------------------------------|
G |--------2---0---||----------------------0-------0-|
D |----------------||2-------3-------4-----2-------2-|
A |----------------|*3-------5-------6---------------|
E |----------------||--------------------------------|
 
   |       |       |       |        |       |       |       |        
E |--------------------------------|--------------------------------|
B |----0---1-----------------------|--------------------------------|
G |2---0---2-----------------------|----------------------0-------0-|
D |3---------------2-----0---------|2-------3-------4-----2-------2-|
A |----------------3-----2---------|3-------5-------6---------------|
E |--------------------------------|--------------------------------|
 
   |       |       |       |        |       |       |       |        
E |----------------0---------------|--------------------------------|
B |----0---1-------------3---------|--------------------------------|
G |2---0---2-------0-----0---------|----------------------0-------0-|
D |3-------------------------------|2-------3-------4-----2-------2-|
A |--------------------------------|3-------5-------6---------------|
E |--------------------------------|--------------------------------|
 
   |       |       |       |        |       |       |       |        
E |----------------0---------------|--------------0-----------------|
B |----0---1-------------3---------|1-------1-----------3---1-------|
G |2---0---2-------1-----1---------|2-------------0-----0---0---2---|
D |3-------------------------------|--------2-----------------------|
A |--------------------------------|--------------------------------|
E |--------------------------------|--------------------------------|
 
   |       |       |       |        
E |--------------------------------|
B |1-----3-----1-------------------|
G |0-----0-------------------------|
D |--------------------------------|
A |--------------------------------|
E |--------------------------------|

measure 10 
   |       |       |       |        |       |       |       |        
E |--------------------------------|--------------------------------|
B |------------------------1---3---|4-----3-----1-------------------|
G |0-----2-----0-------2-----------|------------0-------------------|
D |--------------------------------|------3-------------------------|
A |3-----3-----3-------------------|3-----3-----3-------------------|
E |--------------------------------|--------------------------------|
 
   |       |       |       |        |       |       |       |        
E |--------------------------------|--------------------------------|
B |--------------------------------|--------0-1---0-----------------|
G |--------0-------3---2---0-------|----2-----2---0-----2---0-------|
D |2---------------------------2---|3---2---3-------------------3---|
A |--------------------------------|5-----------------------2---5---|
E |0---------------1---------------|--------------------3-----------|
 
   |       |       |       |        |       |       |       |        
E |--------------------------------|------1-----3-------------------|
B |------------------------1---3---|4-------------------------------|
G |0-----2-----0-------2-----------|--------------------------------|
D |--------------------------------|------1-----1-------------------|
A |3-----3-----3-------------------|3-----3-----3-------------------|
E |--------------------------------|--------------------------------|
 
   |       |       |       |        |       |       |       |        
E |5-------------------------------|--------------------------------|
B |--------1-----4-----3---1-------|1-----3-----1-------------------|
G |0---2-------------------2---2---|------0-------------------------|
D |--------------------0-------0---|2-------------------------------|
A |--------------------------------|--------------------------------|
E |----------------3---------------|--------------------------------|
 
   |       |       |       |        
E |3---3-----3-----3---3---3-------||
B |--------------------------------*|
G |--------------------------------||
D |--------------------------------||
A |--------------------------------*|
E |--------3-----------------------||


Login to Edit
Edit
YouTube
Video
View Sheet Music
Sheet
Music
Print
Speed:
Play Intro (login for the full song)
Play
Intro
Sustain:
Download midi (intro) ...

 Rate:
5 star
4 star
3 star
2 star
1 star
 

Comments (0)
 

No comments yet...

Comment on this tab   -   Unhelpful comments are exterminated.
  Your Guest Name:
      [Member Login]
  Comments:
 

Don't understand the tab?
See "How to Read Guitar Tabs".
Supported tags:
<i>italics</i>
<b>bold</b>
<u>underline</u>
<tab>tab lines</tab>
  Are you a spam robot?

If not, solve the equation:




[1423 TabNabbers online]
©2020 TabNabber.com - Musician Supported Contact us Advertising Merchandise Privacy Policy Terms of Use facebook Twitter