TabNabber Tabs   Musician Supported
  Music Tabs
Espa˝ol English
Franšais Русский
Artist: # A B C D E F G H I J K L M N O P Q R S T U V W X Y Z
guitar

Guitar Tab, Chords



(0 from 0 votes)
394 Views, Last Update 1 month ago
by: Anonymous
guest
[Guest]
D|-----0------------------|------------------|
A|----------0--3--3h5p3p0-|------------------|
F|------------------------|-2----0-4--2--0---|
C|---0---0----------------|----0-----------0-| 
G|------------------------|------------------|
D|-3--------3-------------|-3---------3------|


D|-----0------------------|------------------|
A|----------0--3--3h5p3p0-|------------------|
F|------------------------|-2----0-4--2--0---|
C|---0---0----------------|----0-----------0-| 
G|------------------------|------------------|
D|-3--------3-------------|-3---------3------|
 
D|----------------|-------------0--|-----0-----------|----------------|
A|---------------0|3----5-----0---0|--------3-0-3-3h5|----------------|
F|---------0--2---|---0----2-------|---2-------------|-2----0-4--2--0-|
C|----0h2---------|----------------|-----------------|----0----------0|
G|-3-------3------|3-------3-------|-3--------3------|-3---------3----|
D|----------------|----------------|-----------------|----------------|

D|-----0------------------|------------------|
A|----------0--3--3h5p3p0-|------------------|
F|------------------------|-2----0-4--2--0---|
C|---0---0----------------|----0-----------0-| 
G|------------------------|------------------|
D|-3--------3-------------|-3---------3------|

D|-----0------------------|------------------|
A|----------0--3--3h5p3p0-|------------------|
F|------------------------|-2----0-4--2--0---|
C|---0---0----------------|----0-----------0-| 
G|------------------------|------------------|
D|-3--------3-------------|-3---------3------|
 
D|----------------|-------------0--|-----0---------------|----------------|
A|---------------0|3----5-----0---0|--------3-0-3-3h5p3p0|----------------|
F|---------0--2---|---0----2-------|---2-----------------|-2----0-4--2--0-|
C|----0h2---------|----------------|---------------------|----0----------0|
G|-3-------3------|3-------3-------|-3--------3----------|-3---------3----|
D|----------------|----------------|---------------------|----------------|
 
D|-----0------------------|----------------------|
A|----------0--3--3h5p3p0-|----------------------|
F|------------------------|-2----0-4--2--0-------|
C|---0---0----------------|----0-----------0h2p0-|
G|------------------------|----------------------|
D|-3--------3-------------|-3---------3----------|
 
D|-----0------------------|------------------|
A|----------0--3--3h5p3p0-|------------------|
F|------------------------|-2----0-4--2--0---|
C|---0---0----------------|----0-----------0-| 
G|------------------------|------------------|
D|-3--------3-------------|-3---------3------|

D|-----0------------------|------------------|
A|----------0--3--3h5p3p0-|------------------|
F|------------------------|-2----0-4--2--0---|
C|---0---0----------------|----0-----------0-| 
G|------------------------|------------------|
D|-3--------3-------------|-3---------3------|
 
D|----------------|-------------0--|-----0---------------|----------------|
A|---------------0|3----5-----0---0|--------3-0-3-3h5p3p0|----------------|
F|---------0--2---|---0----2-------|---2-----------------|-2----0-4--2--0-|
C|----0h2---------|----------------|---------------------|----0----------0|
G|-3-------3------|3-------3-------|-3--------3----------|-3---------3----|
D|----------------|----------------|---------------------|----------------|
 
D|-----0------------------|------------------|
A|----------0--3--3h5p3p0-|------------------|
F|------------------------|-2----0-4--2--0---|
C|---0---0----------------|----0-----------0-| 
G|------------------------|------------------|
D|-3--------3-------------|-3---------3------|


D|-----0------------------|------------------|
A|----------0--3--3h5p3p0-|------------------|
F|------------------------|-2----0-4--2--0---|
C|---0---0----------------|----0-----------0-| 
G|------------------------|------------------|
D|-3--------3-------------|-3---------3------|


Login to Edit
Edit
YouTube
Video
View Sheet Music
Sheet
Music
Print
Speed:
Play Intro (login for the full song)
Play
Intro
Sustain:
Download midi (intro) ...

 Rate:
5 star
4 star
3 star
2 star
1 star
 

Comments (0)
 

No comments yet...

Comment on this tab   -   Unhelpful comments are exterminated.
  Your Guest Name:
      [Member Login]
  Comments:
 

Don't understand the tab?
See "How to Read Guitar Tabs".
Supported tags:
<i>italics</i>
<b>bold</b>
<u>underline</u>
<tab>tab lines</tab>
  Are you a spam robot?

If not, solve the equation:




[421 TabNabbers online]
©2021 TabNabber.com - Musician Supported Contact us Advertising Merchandise Privacy Policy Terms of Use facebook Twitter