TabNabber Tabs   Musician Supported
  Music Tabs
Espa˝ol English
Franšais Русский
Artist: # A B C D E F G H I J K L M N O P Q R S T U V W X Y Z
guitar

Guitar Tab, Chords



(5 from 1 votes)
599 Views, Last Update 1 month ago
by: Max Malarky
guest
[Guest]
e|----------------------------------------------------2-|
b|--------4-------4-3---------------------------------0-|
g|------4-------4-------------4-----------------------2-|x2
d|----4-------4-------------------------9-----------1-1-|
a|--2-----------------------6---------9-----------2---2-|
e|----------0---------0h2-4-----4/6/7-----2/4/2p0-------|

e|---------------------------------------------------|
b|------------0-----------0-----------0---------0----|
g|--8-------8---8-------8---8-------8---8------------|
d|---------------------------------------------------|
a|----9--11-------9--11-------9--11-------9--11------|
e|--7-----7-----7-----7-----7-----7-----7-----7------|

e|------------------------------------------|
b|------------0-----------0-----------0--0--|
g|--8-------8---8-------8---8-------8-------|
d|------------------------------------------|
a|----9--11-------9--11-------9--11---------|
e|--7-----7-----7-----7-----7-----7------7--|

e|------------------------------------------------|
b|------------0-----------0-----------0-----------|
g|--8-------8---8-------8---8-------8---8---------|
d|------------------------------------------------|
a|----9--11-------9--11-------9--11-------9---5-6-|
e|--7-----7-----7-----7-----0-----0-----0-----0---|

e|-------------------------------------------------
b|--0-----0-------------0--------------------------
g|-------------8------8----1-----1-1-----1---------
d|----6-----6----------------2-------2-------------
a|------6--------9-11------------------------------
e|--4----------7-----------0---0---0---0-----------

e|-------------------------0------------|
b|--0-----0-------------0--0--------0---|
g|-------------8------8----1------1-----|
d|----6-----6--------------2----2-------|
a|------6--------9-11------2--2---------|
e|--4----------7-----------0------------|

e|-------------------------------------------------
b|-------------------------------------------------
g|--1-----1---1-----1---3-----3---3-----3----------
d|----2-----2---2-----2---4-----4---4-----4--------
a|------2---------2---------4---------4------------
e|--0---------0---------2---------2----------------

e|-----------------------------------------------
b|-----------------------------------------------
g|---8-----8---8-----8----1-----1---1-----1------
d|-----9-----9---9-----9----2-----2---2-----2----
a|-------9---------9----------2---------2--------
e|---7---------7----------0---------0------------

e|---------------------------------------------------------------0-----|
b|---------------------------------------------------------------0-----|
g|--1-----1---1-----1---3-----3---3-----3---8-----8---8-----8----1-----|
d|----2-----2---2-----2---4-----4---4-----4---9-----9---9-----9--2-----|
a|------2---------2---------4---------4---------9---------9------2-----|
e|--0---------0---------2---------2---------7---------7----------0-----|

e|--------------------------------|
b|--------------------------0-3---|
g|--1-----1---1-----1-----2-------|
d|----2-----2---2-------1---------|
a|------2---------2---2-----------|
e|--0---------0-------------------|

e|--------------------------------|-----------------------
b|-----------------------6-5-8-6--|--8-7-5-4-5-7-8-9------
g|-------------------4-6----------|-----------------------
d|-----------4-6-8-6--------------|-----------------------
a|-2-4p2-5-6----------------------|-----------------------
e|--------------------------------|-----------------------

e|-------------------------------------------------0----------------------------|
b|-------------------------------------------------0----------------------------|
g|--6---6---6---6---6---6---6---6---5---5---5---5--5----------------------------|
d|----7---7---7---7---7---7---7---7---4---4---4----4----------------------------|
a|-------------------------------------------------6----------------------------|
e|--5---5---5---5---5---5---5---5---4---4---4---4--4----------------------------|


Login to Edit
Edit
YouTube
Video
View Sheet Music
Sheet
Music
Print
Speed:
Play Intro (login for the full song)
Play
Intro
Sustain:
Download midi (intro) ...

1 Votes
5 star: 100%  (1)
4 star:  (0)
3 star:  (0)
2 star:  (0)
1 star:  (0)
0 star:  (0)
 Rate:
5 star
4 star
3 star
2 star
1 star
 

Comments (0)
 

No comments yet...

Comment on this tab   -   Unhelpful comments are exterminated.
  Your Guest Name:
      [Member Login]
  Comments:
 

Don't understand the tab?
See "How to Read Guitar Tabs".
Supported tags:
<i>italics</i>
<b>bold</b>
<u>underline</u>
<tab>tab lines</tab>
  Are you a spam robot?

If not, solve the equation:




[1157 TabNabbers online]
©2021 TabNabber.com - Musician Supported Contact us Advertising Merchandise Privacy Policy Terms of Use facebook Twitter